  0
SECTION
  2
HEADER
  9
$ACADVER
  1
AC1015
  9
$ACADMAINTVER
 70
     6
  9
$DWGCODEPAGE
  3
ANSI_1252
  9
$INSBASE
 10
0.0
 20
0.0
 30
0.0
  9
$EXTMIN
 10
-12.61945123104456
 20
-27.1655908123997
 30
0.0
  9
$EXTMAX
 10
129.4743905852001
 20
52.05468708573818
 30
0.0
  9
$LIMMIN
 10
0.0
 20
0.0
  9
$LIMMAX
 10
12.0
 20
9.0
  9
$ORTHOMODE
 70
     0
  9
$REGENMODE
 70
     1
  9
$FILLMODE
 70
     1
  9
$QTEXTMODE
 70
     0
  9
$MIRRTEXT
 70
     1
  9
$LTSCALE
 40
1.0
  9
$ATTMODE
 70
     1
  9
$TEXTSIZE
 40
0.2
  9
$TRACEWID
 40
0.05
  9
$TEXTSTYLE
  7
Standard
  9
$CLAYER
  8
0
  9
$CELTYPE
  6
ByLayer
  9
$CECOLOR
 62
   256
  9
$CELTSCALE
 40
1.0
  9
$DISPSILH
 70
     0
  9
$DIMSCALE
 40
5.0
  9
$DIMASZ
 40
0.18
  9
$DIMEXO
 40
0.0625
  9
$DIMDLI
 40
0.38
  9
$DIMRND
 40
0.0
  9
$DIMDLE
 40
0.0
  9
$DIMEXE
 40
0.18
  9
$DIMTP
 40
0.0
  9
$DIMTM
 40
0.0
  9
$DIMTXT
 40
0.18
  9
$DIMCEN
 40
0.09
  9
$DIMTSZ
 40
0.0
  9
$DIMTOL
 70
     0
  9
$DIMLIM
 70
     0
  9
$DIMTIH
 70
     1
  9
$DIMTOH
 70
     1
  9
$DIMSE1
 70
     0
  9
$DIMSE2
 70
     0
  9
$DIMTAD
 70
     0
  9
$DIMZIN
 70
     0
  9
$DIMBLK
  1

  9
$DIMASO
 70
     1
  9
$DIMSHO
 70
     1
  9
$DIMPOST
  1

  9
$DIMAPOST
  1

  9
$DIMALT
 70
     0
  9
$DIMALTD
 70
     2
  9
$DIMALTF
 40
25.4
  9
$DIMLFAC
 40
1.0
  9
$DIMTOFL
 70
     0
  9
$DIMTVP
 40
0.0
  9
$DIMTIX
 70
     0
  9
$DIMSOXD
 70
     0
  9
$DIMSAH
 70
     0
  9
$DIMBLK1
  1

  9
$DIMBLK2
  1

  9
$DIMSTYLE
  2
Standard
  9
$DIMCLRD
 70
     0
  9
$DIMCLRE
 70
     0
  9
$DIMCLRT
 70
     0
  9
$DIMTFAC
 40
1.0
  9
$DIMGAP
 40
0.09
  9
$DIMJUST
 70
     0
  9
$DIMSD1
 70
     0
  9
$DIMSD2
 70
     0
  9
$DIMTOLJ
 70
     1
  9
$DIMTZIN
 70
     0
  9
$DIMALTZ
 70
     0
  9
$DIMALTTZ
 70
     0
  9
$DIMUPT
 70
     0
  9
$DIMDEC
 70
     4
  9
$DIMTDEC
 70
     4
  9
$DIMALTU
 70
     2
  9
$DIMALTTD
 70
     2
  9
$DIMTXSTY
  7
Standard
  9
$DIMAUNIT
 70
     0
  9
$DIMADEC
 70
     0
  9
$DIMALTRND
 40
0.0
  9
$DIMAZIN
 70
     0
  9
$DIMDSEP
 70
    46
  9
$DIMATFIT
 70
     3
  9
$DIMFRAC
 70
     0
  9
$DIMLDRBLK
  1

  9
$DIMLUNIT
 70
     2
  9
$DIMLWD
 70
    -2
  9
$DIMLWE
 70
    -2
  9
$DIMTMOVE
 70
     0
  9
$LUNITS
 70
     2
  9
$LUPREC
 70
     4
  9
$SKETCHINC
 40
0.1
  9
$FILLETRAD
 40
0.0
  9
$AUNITS
 70
     0
  9
$AUPREC
 70
     0
  9
$MENU
  1
.
  9
$ELEVATION
 40
0.0
  9
$PELEVATION
 40
0.0
  9
$THICKNESS
 40
0.0
  9
$LIMCHECK
 70
     0
  9
$CHAMFERA
 40
0.5
  9
$CHAMFERB
 40
0.5
  9
$CHAMFERC
 40
1.0
  9
$CHAMFERD
 40
0.0
  9
$SKPOLY
 70
     0
  9
$TDCREATE
 40
2453137.446578194
  9
$TDUCREATE
 40
2453137.613244861
  9
$TDUPDATE
 40
2453182.649406192
  9
$TDUUPDATE
 40
2453182.816072859
  9
$TDINDWG
 40
0.1291531134
  9
$TDUSRTIMER
 40
0.1291529282
  9
$USRTIMER
 70
     1
  9
$ANGBASE
 50
0.0
  9
$ANGDIR
 70
     0
  9
$PDMODE
 70
     0
  9
$PDSIZE
 40
0.0
  9
$PLINEWID
 40
0.0
  9
$SPLFRAME
 70
     0
  9
$SPLINETYPE
 70
     6
  9
$SPLINESEGS
 70
     8
  9
$HANDSEED
  5
3C6
  9
$SURFTAB1
 70
     6
  9
$SURFTAB2
 70
     6
  9
$SURFTYPE
 70
     6
  9
$SURFU
 70
     6
  9
$SURFV
 70
     6
  9
$UCSBASE
  2

  9
$UCSNAME
  2

  9
$UCSORG
 10
-21.66453526315229
 20
-26.17588012500018
 30
0.0
  9
$UCSXDIR
 10
1.0
 20
0.0
 30
0.0
  9
$UCSYDIR
 10
0.0
 20
1.0
 30
0.0
  9
$UCSORTHOREF
  2

  9
$UCSORTHOVIEW
 70
     0
  9
$UCSORGTOP
 10
0.0
 20
0.0
 30
0.0
  9
$UCSORGBOTTOM
 10
0.0
 20
0.0
 30
0.0
  9
$UCSORGLEFT
 10
0.0
 20
0.0
 30
0.0
  9
$UCSORGRIGHT
 10
0.0
 20
0.0
 30
0.0
  9
$UCSORGFRONT
 10
0.0
 20
0.0
 30
0.0
  9
$UCSORGBACK
 10
0.0
 20
0.0
 30
0.0
  9
$PUCSBASE
  2

  9
$PUCSNAME
  2

  9
$PUCSORG
 10
0.0
 20
0.0
 30
0.0
  9
$PUCSXDIR
 10
1.0
 20
0.0
 30
0.0
  9
$PUCSYDIR
 10
0.0
 20
1.0
 30
0.0
  9
$PUCSORTHOREF
  2

  9
$PUCSORTHOVIEW
 70
     0
  9
$PUCSORGTOP
 10
0.0
 20
0.0
 30
0.0
  9
$PUCSORGBOTTOM
 10
0.0
 20
0.0
 30
0.0
  9
$PUCSORGLEFT
 10
0.0
 20
0.0
 30
0.0
  9
$PUCSORGRIGHT
 10
0.0
 20
0.0
 30
0.0
  9
$PUCSORGFRONT
 10
0.0
 20
0.0
 30
0.0
  9
$PUCSORGBACK
 10
0.0
 20
0.0
 30
0.0
  9
$USERI1
 70
     0
  9
$USERI2
 70
     0
  9
$USERI3
 70
     0
  9
$USERI4
 70
     0
  9
$USERI5
 70
     0
  9
$USERR1
 40
0.0
  9
$USERR2
 40
0.0
  9
$USERR3
 40
0.0
  9
$USERR4
 40
0.0
  9
$USERR5
 40
0.0
  9
$WORLDVIEW
 70
     1
  9
$SHADEDGE
 70
     3
  9
$SHADEDIF
 70
    70
  9
$TILEMODE
 70
     1
  9
$MAXACTVP
 70
    64
  9
$PINSBASE
 10
0.0
 20
0.0
 30
0.0
  9
$PLIMCHECK
 70
     0
  9
$PEXTMIN
 10
1.000000000000000E+20
 20
1.000000000000000E+20
 30
1.000000000000000E+20
  9
$PEXTMAX
 10
-1.000000000000000E+20
 20
-1.000000000000000E+20
 30
-1.000000000000000E+20
  9
$PLIMMIN
 10
0.0
 20
0.0
  9
$PLIMMAX
 10
12.0
 20
9.0
  9
$UNITMODE
 70
     0
  9
$VISRETAIN
 70
     1
  9
$PLINEGEN
 70
     0
  9
$PSLTSCALE
 70
     1
  9
$TREEDEPTH
 70
  3020
  9
$CMLSTYLE
  2
Standard
  9
$CMLJUST
 70
     0
  9
$CMLSCALE
 40
1.0
  9
$PROXYGRAPHICS
 70
     1
  9
$MEASUREMENT
 70
     0
  9
$CELWEIGHT
370
    -1
  9
$ENDCAPS
280
     0
  9
$JOINSTYLE
280
     0
  9
$LWDISPLAY
290
     0
  9
$INSUNITS
 70
     1
  9
$HYPERLINKBASE
  1

  9
$STYLESHEET
  1
monochrome.ctb
  9
$XEDIT
290
     1
  9
$CEPSNTYPE
380
     0
  9
$PSTYLEMODE
290
     1
  9
$FINGERPRINTGUID
  2
{D7EC431A-46ED-4783-A7FD-9F3A36A0F38A}
  9
$VERSIONGUID
  2
{43C154FF-6A68-40C0-9C48-56C72D60E563}
  9
$EXTNAMES
290
     1
  9
$PSVPSCALE
 40
0.0
  9
$OLESTARTUP
290
     0
  0
ENDSEC
  0
SECTION
  2
CLASSES
  0
CLASS
  1
ACDBDICTIONARYWDFLT
  2
AcDbDictionaryWithDefault
  3
AutoCAD 2000
 90
        0
280
     0
281
     0
  0
CLASS
  1
ACDBPLACEHOLDER
  2
AcDbPlaceHolder
  3
AutoCAD 2000
 90
        0
280
     0
281
     0
  0
CLASS
  1
LAYOUT
  2
AcDbLayout
  3
AutoCAD 2000
 90
        0
280
     0
281
     0
  0
CLASS
  1
DICTIONARYVAR
  2
AcDbDictionaryVar
  3
AutoCAD 2000
 90
        0
280
     0
281
     0
  0
ENDSEC
  0
SECTION
  2
TABLES
  0
TABLE
  2
VPORT
  5
8
330
0
100
AcDbSymbolTable
 70
     2
  0
VPORT
  5
3C5
330
8
100
AcDbSymbolTableRecord
100
AcDbViewportTableRecord
  2
*Active
 70
     0
 10
0.0
 20
0.0
 11
1.0
 21
1.0
 12
58.43033232108594
 22
12.44529092591448
 13
0.0
 23
0.0
 14
0.5
 24
0.5
 15
0.5
 25
0.5
 16
0.0
 26
0.0
 36
1.0
 17
0.0
 27
0.0
 37
0.0
 40
82.85485426687259
 41
1.728735632183908
 42
50.0
 43
0.0
 44
0.0
 50
0.0
 51
0.0
 71
     0
 72
  1500
 73
     1
 74
     2
 75
     0
 76
     0
 77
     0
 78
     0
281
     0
 65
     1
110
-21.66453526315229
120
-26.17588012500018
130
0.0
111
1.0
121
0.0
131
0.0
112
0.0
122
1.0
132
0.0
 79
     0
146
0.0
  0
ENDTAB
  0
TABLE
  2
LTYPE
  5
5
330
0
100
AcDbSymbolTable
 70
     2
  0
LTYPE
  5
14
330
5
100
AcDbSymbolTableRecord
100
AcDbLinetypeTableRecord
  2
ByBlock
 70
     0
  3

 72
    65
 73
     0
 40
0.0
  0
LTYPE
  5
15
330
5
100
AcDbSymbolTableRecord
100
AcDbLinetypeTableRecord
  2
ByLayer
 70
     0
  3

 72
    65
 73
     0
 40
0.0
  0
LTYPE
  5
16
330
5
100
AcDbSymbolTableRecord
100
AcDbLinetypeTableRecord
  2
Continuous
 70
     0
  3
Solid line
 72
    65
 73
     0
 40
0.0
  0
LTYPE
  5
254
330
5
100
AcDbSymbolTableRecord
100
AcDbLinetypeTableRecord
  2
HIDDEN
 70
     0
  3
_ _ _ _ _ _ _ _ _ _ _ _ _ _ _ _ _ _ _ _ _ _ _
 72
    65
 73
     2
 40
0.375
 49
0.25
 74
     0
 49
-0.125
 74
     0
  0
ENDTAB
  0
TABLE
  2
LAYER
  5
2
330
0
100
AcDbSymbolTable
 70
    12
  0
LAYER
  5
10
330
2
100
AcDbSymbolTableRecord
100
AcDbLayerTableRecord
  2
0
 70
     0
 62
     7
  6
Continuous
370
    -3
390
F
  0
LAYER
  5
2E
330
2
100
AcDbSymbolTableRecord
100
AcDbLayerTableRecord
  2
ASHADE
 70
     4
 62
     7
  6
Continuous
370
    -3
390
F
  0
LAYER
  5
255
330
2
100
AcDbSymbolTableRecord
100
AcDbLayerTableRecord
  2
WALL
 70
     0
 62
     6
  6
Continuous
370
    -3
390
F
  0
LAYER
  5
256
330
2
100
AcDbSymbolTableRecord
100
AcDbLayerTableRecord
  2
DIM
 70
     0
 62
     2
  6
Continuous
370
    -3
390
F
  0
LAYER
  5
257
330
2
100
AcDbSymbolTableRecord
100
AcDbLayerTableRecord
  2
DOOR
 70
     0
 62
     7
  6
Continuous
370
    -3
390
F
  0
LAYER
  5
258
330
2
100
AcDbSymbolTableRecord
100
AcDbLayerTableRecord
  2
OBJECT
 70
     0
 62
    43
  6
Continuous
370
    -3
390
F
  0
LAYER
  5
259
330
2
100
AcDbSymbolTableRecord
100
AcDbLayerTableRecord
  2
TRACK
 70
     0
 62
     3
  6
Continuous
370
    -3
390
F
  0
LAYER
  5
25A
330
2
100
AcDbSymbolTableRecord
100
AcDbLayerTableRecord
  2
HIDDEN
 70
     0
 62
     3
  6
HIDDEN
370
    -3
390
F
  0
LAYER
  5
25B
330
2
100
AcDbSymbolTableRecord
100
AcDbLayerTableRecord
  2
2''
 70
     0
 62
     4
  6
Continuous
370
    -3
390
F
  0
LAYER
  5
25C
330
2
100
AcDbSymbolTableRecord
100
AcDbLayerTableRecord
  2
Diverter
 70
     0
 62
     1
  6
Continuous
370
    -3
390
F
  0
LAYER
  5
25D
330
2
100
AcDbSymbolTableRecord
100
AcDbLayerTableRecord
  2
Defpoints
 70
     0
 62
     7
  6
Continuous
290
     0
370
    -3
390
F
  0
LAYER
  5
25E
330
2
100
AcDbSymbolTableRecord
100
AcDbLayerTableRecord
  2
3_INCH_STRUT
 70
     0
 62
     6
  6
Continuous
370
    -3
390
F
  0
ENDTAB
  0
TABLE
  2
STYLE
  5
3
330
0
100
AcDbSymbolTable
 70
     3
  0
STYLE
  5
11
330
3
100
AcDbSymbolTableRecord
100
AcDbTextStyleTableRecord
  2
Standard
 70
     0
 40
0.0
 41
1.0
 50
0.0
 71
     0
 42
0.2
  3
txt
  4

  0
STYLE
  5
2B
330
3
100
AcDbSymbolTableRecord
100
AcDbTextStyleTableRecord
  2
ASHADE
 70
     0
 40
0.2
 41
1.0
 50
0.0
 71
     0
 42
0.2
  3
simplex.shx
  4

  0
STYLE
  5
25F
330
3
100
AcDbSymbolTableRecord
100
AcDbTextStyleTableRecord
  2
ROMANS
 70
     0
 40
0.0
 41
1.0
 50
0.0
 71
     0
 42
2.0
  3
romans.shx
  4

  0
ENDTAB
  0
TABLE
  2
VIEW
  5
6
330
0
100
AcDbSymbolTable
 70
     0
  0
ENDTAB
  0
TABLE
  2
UCS
  5
7
330
0
100
AcDbSymbolTable
 70
     0
  0
ENDTAB
  0
TABLE
  2
APPID
  5
9
330
0
100
AcDbSymbolTable
 70
     6
  0
APPID
  5
12
330
9
100
AcDbSymbolTableRecord
100
AcDbRegAppTableRecord
  2
ACAD
 70
     0
  0
APPID
  5
2C
330
9
100
AcDbSymbolTableRecord
100
AcDbRegAppTableRecord
  2
AVE_RENDER
 70
     0
  0
APPID
  5
2D
330
9
100
AcDbSymbolTableRecord
100
AcDbRegAppTableRecord
  2
AVE_ENTITY_MATERIAL
 70
     0
  0
APPID
  5
3A
330
9
100
AcDbSymbolTableRecord
100
AcDbRegAppTableRecord
  2
AVE_FINISH
 70
     0
  0
APPID
  5
3B
330
9
100
AcDbSymbolTableRecord
100
AcDbRegAppTableRecord
  2
AVE_MATERIAL
 70
     0
  0
APPID
  5
3C
330
9
100
AcDbSymbolTableRecord
100
AcDbRegAppTableRecord
  2
AVE_GLOBAL
 70
     0
  0
ENDTAB
  0
TABLE
  2
DIMSTYLE
  5
A
330
0
100
AcDbSymbolTable
 70
     1
100
AcDbDimStyleTable
 71
     1
340
27
  0
DIMSTYLE
105
27
330
A
100
AcDbSymbolTableRecord
100
AcDbDimStyleTableRecord
  2
Standard
 70
     0
 40
5.0
340
11
  0
ENDTAB
  0
TABLE
  2
BLOCK_RECORD
  5
1
330
0
100
AcDbSymbolTable
 70
    11
  0
BLOCK_RECORD
  5
1F
330
1
100
AcDbSymbolTableRecord
100
AcDbBlockTableRecord
  2
*Model_Space
340
22
  0
BLOCK_RECORD
  5
1B
330
1
100
AcDbSymbolTableRecord
100
AcDbBlockTableRecord
  2
*Paper_Space
340
1E
  0
BLOCK_RECORD
  5
23
330
1
100
AcDbSymbolTableRecord
100
AcDbBlockTableRecord
  2
*Paper_Space0
340
26
  0
BLOCK_RECORD
  5
2F
330
1
100
AcDbSymbolTableRecord
100
AcDbBlockTableRecord
  2
AVE_RENDER
340
0
102
{BLKREFS
331
32
331
33
331
34
331
35
331
36
331
37
331
38
331
39
102
}
  0
BLOCK_RECORD
  5
3D
330
1
100
AcDbSymbolTableRecord
100
AcDbBlockTableRecord
  2
AVE_GLOBAL
340
0
102
{BLKREFS
331
40
102
}
  0
BLOCK_RECORD
  5
1FC
330
1
100
AcDbSymbolTableRecord
100
AcDbBlockTableRecord
  2
COMM SLIDE
340
0
310
28000000200000002000000001000800000000000004000000000000000000000000000000000000000000004000000080000000FF000000002000004020000080200000FF200000004000004040000080400000FF400000006000004060000080600000FF600000008000004080000080800000FF80000000A0000040A000
310
0080A00000FFA0000000C0000040C0000080C00000FFC0000000FF000040FF000080FF0000FFFF0000000020004000200080002000FF002000002020004020200080202000FF202000004020004040200080402000FF402000006020004060200080602000FF602000008020004080200080802000FF80200000A0200040A0
310
200080A02000FFA0200000C0200040C0200080C02000FFC0200000FF200040FF200080FF2000FFFF2000000040004000400080004000FF004000002040004020400080204000FF204000004040004040400080404000FF404000006040004060400080604000FF604000008040004080400080804000FF80400000A0400040
310
A0400080A04000FFA0400000C0400040C0400080C04000FFC0400000FF400040FF400080FF4000FFFF4000000060004000600080006000FF006000002060004020600080206000FF206000004060004040600080406000FF406000006060004060600080606000FF606000008060004080600080806000FF80600000A06000
310
40A0600080A06000FFA0600000C0600040C0600080C06000FFC0600000FF600040FF600080FF6000FFFF6000000080004000800080008000FF008000002080004020800080208000FF208000004080004040800080408000FF408000006080004060800080608000FF608000008080004080800080808000FF80800000A080
310
0040A0800080A08000FFA0800000C0800040C0800080C08000FFC0800000FF800040FF800080FF8000FFFF80000000A0004000A0008000A000FF00A0000020A0004020A0008020A000FF20A0000040A0004040A0008040A000FF40A0000060A0004060A0008060A000FF60A0000080A0004080A0008080A000FF80A00000A0
310
A00040A0A00080A0A000FFA0A00000C0A00040C0A00080C0A000FFC0A00000FFA00040FFA00080FFA000FFFFA0000000C0004000C0008000C000FF00C0000020C0004020C0008020C000FF20C0000040C0004040C0008040C000FF40C0000060C0004060C0008060C000FF60C0000080C0004080C0008080C000FF80C00000
310
A0C00040A0C00080A0C000FFA0C00000C0C00040C0C00080C0C000FFC0C00000FFC00040FFC00080FFC000FFFFC0000000FF004000FF008000FF00FF00FF000020FF004020FF008020FF00FF20FF000040FF004040FF008040FF00FF40FF000060FF004060FF008060FF00FF60FF000080FF004080FF008080FF00FF80FF00
310
00A0FF0040A0FF0080A0FF00FFA0FF0000C0FF0040C0FF0080C0FF00FFC0FF0000FFFF0040FFFF0080FFFF00FFFFFF00000000000000000000000000000000000000000000000000000000000000000000000000000000000000000000000000E0E0E0E0E0E0E0E00000000000000000000000000000000000000000000000
310
00E01C0000000000E0000000000000000000000000000000000000000000000000E01C0000000000E0000000000000000000000000000000000000000000000000E01C0000000000E0000000000000000000000000000000000000000000000000E01C0000000000E000000000000000000000000000000000000000000000
310
0000E01C0000000000E0000000000000000000000000000000000000000000000000E01C0000000000E0000000000000000000000000000000000000000000000000E01C0000000000E0000000000000000000000000000000000000000000000000E01C0000000000E0000000000000000000000000000000000000000000
310
000000E01C0000000000E0000000000000000000000000000000000000000000000000E01C0000000000E0000000000000000000000000000000000000000000000000E01C0000000000E0000000000000000000000000000000000000000000000000E01C0000000000E00000000000000000000000000000000000000000
310
00000000E01C0000000000E0000000000000000000000000000000000000000000000000E01C0000000000E0000000000000000000000000000000000000000000000000E01C0000000000E0000000000000000000000000000000000000000000000000E01C0000000000E000000000000000000000000000000000000000
310
0000000000E0E0E0E0E0E0E0E0000000000000000000000000000000000000000000000000E0E0000000000000000000000000000000000000000000000000000000000000E0E00000000000000000000000000000000000000000000000000000E0E00000E0E0000000000000000000000000000000000000000000000000
310
E0E0E0E0E0E0E0E00000000000000000000000000000000000000000000000E000E00000E0E0E0E00000000000000000000000000000000000000000000000E000E000000000E0E00000000000000000000000000000000000000000000000E0E00000000000E0E00000000000000000000000000000000000000000000000
310
E0E000000000E000E00000000000000000000000000000000000000000000000E000E0000000E000E0000000000000000000000000000000000000000000000000E0E0E0E0E000E0000000000000000000000000000000000000000000000000000000E0E0E0E0E00000000000000000000000000000000000000000000000
310
0000000000000000000000000000000000000000000000000000000000000000000000000000000000000000000000000000000000000000
102
{BLKREFS
331
2D4
102
}
  0
BLOCK_RECORD
  5
235
330
1
100
AcDbSymbolTableRecord
100
AcDbBlockTableRecord
  2
STRUT-3''
340
0
  0
ENDTAB
  0
ENDSEC
  0
SECTION
  2
BLOCKS
  0
BLOCK
  5
20
330
1F
100
AcDbEntity
  8
0
100
AcDbBlockBegin
  2
*Model_Space
 70
     0
 10
0.0
 20
0.0
 30
0.0
  3
*Model_Space
  1

  0
ENDBLK
  5
21
330
1F
100
AcDbEntity
  8
0
100
AcDbBlockEnd
  0
BLOCK
  5
1C
330
1B
100
AcDbEntity
 67
     1
  8
0
100
AcDbBlockBegin
  2
*Paper_Space
 70
     0
 10
0.0
 20
0.0
 30
0.0
  3
*Paper_Space
  1

  0
ENDBLK
  5
1D
330
1B
100
AcDbEntity
 67
     1
  8
0
100
AcDbBlockEnd
  0
BLOCK
  5
24
330
23
100
AcDbEntity
  8
0
100
AcDbBlockBegin
  2
*Paper_Space0
 70
     0
 10
0.0
 20
0.0
 30
0.0
  3
*Paper_Space0
  1

  0
ENDBLK
  5
25
330
23
100
AcDbEntity
  8
0
100
AcDbBlockEnd
  0
BLOCK
  5
30
330
2F
100
AcDbEntity
  8
ASHADE
100
AcDbBlockBegin
  2
AVE_RENDER
 70
     0
 10
0.0
 20
0.0
 30
0.0
  3
AVE_RENDER
  1
AVE_RENDER
  0
ENDBLK
  5
31
330
2F
100
AcDbEntity
  8
0
100
AcDbBlockEnd
  0
BLOCK
  5
3E
330
3D
100
AcDbEntity
  8
ASHADE
100
AcDbBlockBegin
  2
AVE_GLOBAL
 70
     0
 10
0.0
 20
0.0
 30
0.0
  3
AVE_GLOBAL
  1
AVE_GLOBAL
  0
ENDBLK
  5
3F
330
3D
100
AcDbEntity
  8
0
100
AcDbBlockEnd
  0
BLOCK
  5
219
330
1FC
100
AcDbEntity
  8
0
 48
0.5
100
AcDbBlockBegin
  2
COMM SLIDE
 70
     0
 10
0.0
 20
0.0
 30
0.0
  3
COMM SLIDE
  1

  0
LINE
  5
1FD
330
1FC
100
AcDbEntity
  8
OBJECT
 48
0.5
100
AcDbLine
 10
12.05227688523981
 20
15.34487954207837
 30
0.0
 11
12.05227688523981
 21
14.22487954207837
 31
0.0
  0
LINE
  5
1FE
330
1FC
100
AcDbEntity
  8
HIDDEN
 48
0.5
100
AcDbLine
 10
11.69227688523981
 20
15.35487954207837
 30
0.0
 11
11.69227688523981
 21
14.22487954207837
 31
0.0
  0
LINE
  5
1FF
330
1FC
100
AcDbEntity
  8
OBJECT
 48
0.5
100
AcDbLine
 10
11.60227688523981
 20
15.83487954207837
 30
0.0
 11
11.60227688523981
 21
14.22487954207837
 31
0.0
  0
LINE
  5
200
330
1FC
100
AcDbEntity
  8
OBJECT
 48
0.5
100
AcDbLine
 10
11.60227688523981
 20
14.22487954207837
 30
0.0
 11
12.05227688523981
 21
14.22487954207837
 31
0.0
  0
ARC
  5
201
330
1FC
100
AcDbEntity
  8
OBJECT
 48
0.5
100
AcDbCircle
 10
11.38227688523981
 20
15.83487954207837
 30
0.0
 40
0.31
100
AcDbArc
 50
0.0
 51
309.9999999999997
  0
ARC
  5
202
330
1FC
100
AcDbEntity
  8
OBJECT
 48
0.5
100
AcDbCircle
 10
11.38227688523981
 20
15.83487954207837
 30
0.0
 40
0.22
100
AcDbArc
 50
0.0
 51
309.9999999999997
  0
LINE
  5
203
330
1FC
100
AcDbEntity
  8
OBJECT
 48
0.5
100
AcDbLine
 10
11.69227688523981
 20
15.83487954207837
 30
0.0
 11
11.69227688523981
 21
15.34487954207837
 31
0.0
  0
LINE
  5
204
330
1FC
100
AcDbEntity
  8
OBJECT
 48
0.5
100
AcDbLine
 10
11.60227688523981
 20
15.34487954207837
 30
0.0
 11
12.05227688523981
 21
15.34487954207837
 31
0.0
  0
LINE
  5
205
330
1FC
100
AcDbEntity
  8
OBJECT
 48
0.5
100
AcDbLine
 10
11.60227688523981
 20
15.47487954207837
 30
0.0
 11
11.69227688523981
 21
15.47487954207837
 31
0.0
  0
LINE
  5
206
330
1FC
100
AcDbEntity
  8
OBJECT
 48
0.5
100
AcDbLine
 10
11.52369015937085
 20
15.6663497645922
 30
0.0
 11
11.58154104424264
 21
15.59740576471149
 31
0.0
  0
ARC
  5
207
330
1FC
100
AcDbEntity
  8
HIDDEN
 48
0.5
100
AcDbCircle
 10
11.48225902769116
 20
14.84565904155406
 30
0.0
 40
0.4628125000000091
100
AcDbArc
 50
311.1104025299578
 51
49.37908781236048
  0
LINE
  5
208
330
1FC
100
AcDbEntity
  8
HIDDEN
 48
0.5
100
AcDbLine
 10
11.34734336311669
 20
14.64871949847885
 30
0.0
 11
11.89733834529723
 21
14.65106887631992
 31
0.0
  0
LINE
  5
209
330
1FC
100
AcDbEntity
  8
HIDDEN
 48
0.5
100
AcDbLine
 10
11.34601062514139
 20
14.96071665200671
 30
0.0
 11
11.89600560732193
 21
14.96306602984779
 31
0.0
  0
LINE
  5
20A
330
1FC
100
AcDbEntity
  8
OBJECT
 48
0.5
100
AcDbLine
 10
11.36774471068155
 20
14.5548057879913
 30
0.0
 11
11.58774270355377
 21
14.55574553912773
 31
0.0
  0
LINE
  5
20B
330
1FC
100
AcDbEntity
  8
OBJECT
 48
0.5
100
AcDbLine
 10
11.36560891264421
 20
15.05480122633724
 30
0.0
 11
11.58560690551642
 21
15.05574097747367
 31
0.0
  0
LINE
  5
20C
330
1FC
100
AcDbEntity
  8
OBJECT
 48
0.5
100
AcDbLine
 10
11.34667699412904
 20
14.80471807524278
 30
0.0
 11
11.60667462206893
 21
14.8058286902222
 31
0.0
  0
LINE
  5
20D
330
1FC
100
AcDbEntity
  8
OBJECT
 48
0.5
100
AcDbLine
 10
11.32532319744041
 20
14.92550815962889
 30
0.0
 11
11.32638133236014
 21
14.67779623941533
 31
0.0
  0
LINE
  5
20E
330
1FC
100
AcDbEntity
  8
OBJECT
 48
0.5
100
AcDbLine
 10
11.30601099007372
 20
14.96054578816373
 30
0.0
 11
11.30734372804902
 21
14.64854863463586
 31
0.0
  0
LINE
  5
20F
330
1FC
100
AcDbEntity
  8
OBJECT
 48
0.5
100
AcDbLine
 10
11.28609660446138
 20
14.9404605387084
 30
0.0
 11
11.28725847859369
 21
14.66846302024821
 31
0.0
  0
LINE
  5
210
330
1FC
100
AcDbEntity
  8
OBJECT
 48
0.5
100
AcDbLine
 10
11.34569452703187
 20
15.03471597688191
 30
0.0
 11
11.34765946122622
 21
14.57472017360365
 31
0.0
  0
LINE
  5
211
330
1FC
100
AcDbEntity
  8
OBJECT
 48
0.5
100
AcDbLine
 10
11.34765946122622
 20
14.57472017360365
 30
0.0
 11
11.36774471068155
 21
14.5548057879913
 31
0.0
  0
LINE
  5
212
330
1FC
100
AcDbEntity
  8
OBJECT
 48
0.5
100
AcDbLine
 10
11.28725847859369
 20
14.66846302024821
 30
0.0
 11
11.30734372804902
 21
14.64854863463586
 31
0.0
  0
LINE
  5
213
330
1FC
100
AcDbEntity
  8
OBJECT
 48
0.5
100
AcDbLine
 10
11.30734372804902
 20
14.64854863463586
 30
0.0
 11
11.34734336311669
 21
14.64871949847885
 31
0.0
  0
LINE
  5
214
330
1FC
100
AcDbEntity
  8
OBJECT
 48
0.5
100
AcDbLine
 10
11.28609660446138
 20
14.9404605387084
 30
0.0
 11
11.30601099007372
 21
14.96054578816373
 31
0.0
  0
LINE
  5
215
330
1FC
100
AcDbEntity
  8
OBJECT
 48
0.5
100
AcDbLine
 10
11.30601099007372
 20
14.96054578816373
 30
0.0
 11
11.34601062514139
 21
14.96071665200671
 31
0.0
  0
LINE
  5
216
330
1FC
100
AcDbEntity
  8
OBJECT
 48
0.5
100
AcDbLine
 10
11.36560891264421
 20
15.05480122633724
 30
0.0
 11
11.34569452703187
 21
15.03471597688191
 31
0.0
  0
LINE
  5
217
330
1FC
100
AcDbEntity
  8
OBJECT
 48
0.5
100
AcDbLine
 10
11.60765708916611
 20
14.57583078858307
 30
0.0
 11
11.58774270355377
 21
14.55574553912773
 31
0.0
  0
LINE
  5
218
330
1FC
100
AcDbEntity
  8
OBJECT
 48
0.5
100
AcDbLine
 10
11.58560690551643
 20
15.05574097747367
 30
0.0
 11
11.60569215497176
 21
15.03582659186132
 31
0.0
  0
ENDBLK
  5
21A
330
1FC
100
AcDbEntity
  8
0
 48
0.5
100
AcDbBlockEnd
  0
BLOCK
  5
252
330
235
100
AcDbEntity
  8
0
100
AcDbBlockBegin
  2
STRUT-3''
 70
     0
 10
0.0
 20
0.0
 30
0.0
  3
STRUT-3''
  1

  0
ARC
  5
236
330
235
100
AcDbEntity
  8
3_INCH_STRUT
100
AcDbCircle
 10
2.948890614499196
 20
-0.210775330517512
 30
0.0
 40
0.06
100
AcDbArc
 50
270.0
 51
0.0000000000000013
  0
ARC
  5
237
330
235
100
AcDbEntity
  8
3_INCH_STRUT
100
AcDbCircle
 10
2.948890614499196
 20
0.2107753305175226
 30
0.0
 40
0.06
100
AcDbArc
 50
0.0000000000000013
 51
90.00000000000001
  0
ARC
  5
238
330
235
100
AcDbEntity
  8
3_INCH_STRUT
100
AcDbCircle
 10
2.948890614499196
 20
-0.210775330517512
 30
0.0
 40
0.02
100
AcDbArc
 50
270.0
 51
0.0000000000000013
  0
ARC
  5
239
330
235
100
AcDbEntity
  8
3_INCH_STRUT
100
AcDbCircle
 10
2.948890614499196
 20
0.2107753305175226
 30
0.0
 40
0.02
100
AcDbArc
 50
0.0000000000000013
 51
89.99999999999998
  0
LINE
  5
23A
330
235
100
AcDbEntity
  8
3_INCH_STRUT
100
AcDbLine
 10
0.0
 20
0.6250000000000071
 30
0.0
 11
0.0
 21
0.8349999999999972
 31
0.0
  0
LINE
  5
23B
330
235
100
AcDbEntity
  8
3_INCH_STRUT
100
AcDbLine
 10
0.0600000000000023
 20
0.2307753305175293
 30
0.0
 11
2.948890614499196
 21
0.2307753305175293
 31
0.0
  0
LINE
  5
23C
330
235
100
AcDbEntity
  8
3_INCH_STRUT
100
AcDbLine
 10
0.0800000000000001
 20
0.6194827586206913
 30
0.0
 11
0.0800000000000001
 21
0.8349999999999972
 31
0.0
  0
LINE
  5
23D
330
235
100
AcDbEntity
  8
3_INCH_STRUT
100
AcDbLine
 10
0.0
 20
0.6250000000000071
 30
0.0
 11
0.04
 21
0.6250000000000071
 31
0.0
  0
LINE
  5
23E
330
235
100
AcDbEntity
  8
3_INCH_STRUT
100
AcDbLine
 10
0.04
 20
0.6250000000000071
 30
0.0
 11
0.04
 21
0.8349999999999972
 31
0.0
  0
LINE
  5
23F
330
235
100
AcDbEntity
  8
3_INCH_STRUT
100
AcDbLine
 10
0.0658959480504962
 20
0.2707753305175249
 30
0.0
 11
2.948890614499196
 21
0.2707753305175249
 31
0.0
  0
ARC
  5
240
330
235
100
AcDbEntity
  8
3_INCH_STRUT
100
AcDbCircle
 10
0.04
 20
0.8349999999999972
 30
0.0
 40
0.04
100
AcDbArc
 50
0.0000000000000013
 51
180.0
  0
ARC
  5
241
330
235
100
AcDbEntity
  8
3_INCH_STRUT
100
AcDbCircle
 10
0.0600000000000023
 20
0.2907753305175138
 30
0.0
 40
0.0599999999999996
100
AcDbArc
 50
169.9062737802696
 51
270.0
  0
ARC
  5
242
330
235
100
AcDbEntity
  8
3_INCH_STRUT
100
AcDbCircle
 10
0.0658959480504962
 20
0.2907753305175138
 30
0.0
 40
0.0199999999999996
100
AcDbArc
 50
171.3034978570409
 51
270.0
  0
LINE
  5
243
330
235
100
AcDbEntity
  8
3_INCH_STRUT
100
AcDbLine
 10
0.0800000000000001
 20
0.6194827586206913
 30
0.0
 11
0.0461258856643543
 21
0.2937993399831402
 31
0.0
  0
LINE
  5
244
330
235
100
AcDbEntity
  8
3_INCH_STRUT
100
AcDbLine
 10
0.04
 20
0.6250000000000071
 30
0.0
 11
0.0009286574160239
 21
0.3012908659449938
 31
0.0
  0
LINE
  5
245
330
235
100
AcDbEntity
  8
3_INCH_STRUT
100
AcDbLine
 10
0.04
 20
-0.6250000000000107
 30
0.0
 11
0.0009286574160239
 21
-0.3012908659450009
 31
0.0
  0
LINE
  5
246
330
235
100
AcDbEntity
  8
3_INCH_STRUT
100
AcDbLine
 10
0.0800000000000001
 20
-0.6194827586206948
 30
0.0
 11
0.0461258856643543
 21
-0.2937993399831473
 31
0.0
  0
ARC
  5
247
330
235
100
AcDbEntity
  8
3_INCH_STRUT
100
AcDbCircle
 10
0.0658959480504962
 20
-0.2907753305175209
 30
0.0
 40
0.0199999999999996
100
AcDbArc
 50
89.99999999999998
 51
188.6965021429591
  0
ARC
  5
248
330
235
100
AcDbEntity
  8
3_INCH_STRUT
100
AcDbCircle
 10
0.0600000000000023
 20
-0.2907753305175209
 30
0.0
 40
0.0599999999999996
100
AcDbArc
 50
89.99999999999998
 51
190.0937262197303
  0
ARC
  5
249
330
235
100
AcDbEntity
  8
3_INCH_STRUT
100
AcDbCircle
 10
0.0399999999999956
 20
-0.8350000000000008
 30
0.0
 40
0.04
100
AcDbArc
 50
180.0
 51
0.0000000000000013
  0
LINE
  5
24A
330
235
100
AcDbEntity
  8
3_INCH_STRUT
100
AcDbLine
 10
0.0658959480504962
 20
-0.2707753305175142
 30
0.0
 11
2.948890614499196
 21
-0.2707753305175142
 31
0.0
  0
LINE
  5
24B
330
235
100
AcDbEntity
  8
3_INCH_STRUT
100
AcDbLine
 10
0.04
 20
-0.6250000000000107
 30
0.0
 11
0.04
 21
-0.834999999999983
 31
0.0
  0
LINE
  5
24C
330
235
100
AcDbEntity
  8
3_INCH_STRUT
100
AcDbLine
 10
0.0
 20
-0.6250000000000107
 30
0.0
 11
0.04
 21
-0.6250000000000107
 31
0.0
  0
LINE
  5
24D
330
235
100
AcDbEntity
  8
3_INCH_STRUT
100
AcDbLine
 10
2.968890614499198
 20
0.2107753305175226
 30
0.0
 11
2.968890614499198
 21
-0.210775330517512
 31
0.0
  0
LINE
  5
24E
330
235
100
AcDbEntity
  8
3_INCH_STRUT
100
AcDbLine
 10
0.0800000000000001
 20
-0.6194827586206948
 30
0.0
 11
0.0800000000000001
 21
-0.834999999999983
 31
0.0
  0
LINE
  5
24F
330
235
100
AcDbEntity
  8
3_INCH_STRUT
100
AcDbLine
 10
0.0600000000000023
 20
-0.2307753305175364
 30
0.0
 11
2.948890614499196
 21
-0.2307753305175364
 31
0.0
  0
LINE
  5
250
330
235
100
AcDbEntity
  8
3_INCH_STRUT
100
AcDbLine
 10
3.008890614499199
 20
0.2107753305175226
 30
0.0
 11
3.008890614499199
 21
-0.210775330517512
 31
0.0
  0
LINE
  5
251
330
235
100
AcDbEntity
  8
3_INCH_STRUT
100
AcDbLine
 10
0.0
 20
-0.6250000000000107
 30
0.0
 11
0.0
 21
-0.834999999999983
 31
0.0
  0
ENDBLK
  5
253
330
235
100
AcDbEntity
  8
0
100
AcDbBlockEnd
  0
ENDSEC
  0
SECTION
  2
ENTITIES
  0
INSERT
  5
32
330
1F
100
AcDbEntity
  8
ASHADE
 62
     1
100
AcDbBlockReference
  2
AVE_RENDER
 10
0.0
 20
0.0
 30
0.0
1001
AVE_RENDER
1002
{
1070
     7
1000
Pref
1070
    30
1070
    20
1070
     1
1070
     0
1000

1070
    10
1070
     1
1070
    10
1040
1.0
1070
     1
1040
0.3
1040
0.7
1040
0.0
1040
10.0
1010
-1.0
1020
-1.0
1030
-1.0
1040
0.3
1070
    49
1070
     0
1070
     0
1010
1.0
1020
1.0
1030
1.0
1040
45.0
1070
     1
1070
     0
1000
WCS
1040
0.0
1070
     0
1040
10.0
1002
}
  0
INSERT
  5
33
330
1F
100
AcDbEntity
  8
ASHADE
 62
     3
100
AcDbBlockReference
  2
AVE_RENDER
 10
0.0
 20
0.0
 30
0.0
1001
AVE_RENDER
1002
{
1070
     0
1000
Full Opt
1070
     0
1070
     1
1070
     1
1070
     1
1070
     0
1070
     0
1070
     0
1070
     1
1070
     1
1040
0.0001
1040
0.0001
1002
}
  0
INSERT
  5
34
330
1F
100
AcDbEntity
  8
ASHADE
 62
     4
100
AcDbBlockReference
  2
AVE_RENDER
 10
0.0
 20
0.0
 30
0.0
1001
AVE_RENDER
1002
{
1070
     0
1000
Quick Opt
1070
     0
1070
     1
1070
     1
1070
     1
1070
     0
1070
     0
1070
     1
1002
}
  0
INSERT
  5
35
330
1F
100
AcDbEntity
  8
ASHADE
 62
     5
100
AcDbBlockReference
  2
AVE_RENDER
 10
0.0
 20
0.0
 30
0.0
1001
AVE_RENDER
1002
{
1070
     1
1000
Scanl Opt
1070
     2
1070
     0
1070
     2
1040
2.0
1040
4.0
1070
     0
1070
     1
1070
     0
1040
0.03
1002
}
  0
INSERT
  5
36
330
1F
100
AcDbEntity
  8
ASHADE
 62
     6
100
AcDbBlockReference
  2
AVE_RENDER
 10
0.0
 20
0.0
 30
0.0
1001
AVE_RENDER
1002
{
1070
     2
1000
Raytr Opt
1070
     2
1070
     0
1070
     2
1040
2.0
1040
4.0
1070
     0
1070
     1
1070
     1
1040
0.03
1070
     3
1040
0.03
1002
}
  0
INSERT
  5
37
330
1F
100
AcDbEntity
  8
ASHADE
 62
     7
100
AcDbBlockReference
  2
AVE_RENDER
 10
0.0
 20
0.0
 30
0.0
1001
AVE_RENDER
1002
{
1070
     0
1000
RFile Opt
1070
     1
1070
   640
1070
   480
1070
 10000
1070
     1
1070
     8
1070
     8
1070
     0
1070
     0
1070
     0
1070
     0
1070
     0
1070
     0
1070
     0
1002
}
  0
INSERT
  5
38
330
1F
100
AcDbEntity
  8
ASHADE
 62
     8
100
AcDbBlockReference
  2
AVE_RENDER
 10
0.0
 20
0.0
 30
0.0
1001
AVE_RENDER
1002
{
1070
     0
1000
Fog Opt
1070
     0
1070
     0
1040
0.0
1040
1.0
1040
0.0
1040
1.0
1010
0.5
1020
0.5
1030
0.5
1002
}
  0
INSERT
  5
39
330
1F
100
AcDbEntity
  8
ASHADE
 62
     9
100
AcDbBlockReference
  2
AVE_RENDER
 10
0.0
 20
0.0
 30
0.0
1001
AVE_RENDER
1002
{
1070
     0
1000
BG Opt
1070
     0
1070
     1
1010
0.0
1020
0.0
1030
0.0
1010
1.0
1020
0.0
1030
0.0
1010
0.0
1020
1.0
1030
0.0
1010
0.0
1020
0.0
1030
1.0
1040
0.5
1040
0.33
1040
0.0
1000

1070
     1
1000

1070
     1
1070
     1
1040
1.0
1040
1.0
1040
0.0
1040
0.0
1070
     0
1002
}
  0
INSERT
  5
40
330
1F
100
AcDbEntity
  8
ASHADE
 62
     1
100
AcDbBlockReference
  2
AVE_GLOBAL
 10
0.0
 20
0.0
 30
0.0
1001
AVE_MATERIAL
1002
{
1000
*GLOBAL*
1000
2
1000
Global finish.
1002
{
1002
}
1002
{
1070
    63
1002
{
1002
{
1010
-1.0
1020
-1.0
1030
-1.0
1002
}
1040
0.1000000014901161
1000

1040
0.0
1002
{
1002
}
1040
0.0
1002
{
1002
}
1040
0.0
1002
}
1002
{
1002
{
1010
-1.0
1020
-1.0
1030
-1.0
1002
}
1040
0.6999999880790711
1000

1040
0.0
1002
{
1002
}
1040
0.0
1002
{
1002
}
1040
0.0
1002
}
1002
{
1002
{
1010
-1.0
1020
-1.0
1030
-1.0
1002
}
1040
0.2000000029802322
1000

1040
0.0
1002
{
1002
}
1040
0.0
1002
{
1002
}
1040
0.0
1002
}
1002
{
1070
     0
1002
{
1070
     1
1002
{
1040
1.0
1040
1.0
1000

1040
0.0
1002
{
1002
}
1040
0.0
1002
{
1002
}
1040
0.0
1002
}
1002
}
1040
1.0
1040
0.0
1040
0.0
1002
}
1002
{
1040
1.0
1040
1.0
1000

1040
0.0
1002
{
1002
}
1040
0.0
1002
{
1002
}
1040
0.0
1002
}
1002
{
1040
0.5
1040
1.0
1000

1040
0.0
1002
{
1002
}
1040
0.0
1002
{
1002
}
1040
0.0
1002
}
1002
{
1070
     0
1040
0.0
1002
{
1002
}
1040
1.0
1002
{
1002
}
1040
0.0
1002
}
1002
{
1040
0.0
1002
{
1002
{
1010
0.0
1020
0.0
1030
0.0
1002
}
1040
1.0
1000

1040
0.0
1002
{
1002
}
1040
0.0
1002
{
1002
}
1040
0.0
1002
}
1002
}
1002
{
1002
{
1070
     1
1002
{
1040
0.0
1040
1.0
1000

1040
0.0
1002
{
1002
}
1040
0.0
1002
{
1002
}
1040
0.0
1002
}
1002
}
1040
0.0
1002
{
1002
}
1010
1.0
1020
0.0
1030
0.0
1010
0.0
1020
1.0
1030
0.0
1010
0.0
1020
0.0
1030
1.0
1070
     0
1002
}
1002
{
1002
{
1040
1.0
1040
1.0
1002
{
1070
     1
1002
{
1040
1.0
1040
1.0
1000

1040
0.0
1002
{
1002
}
1040
0.0
1002
{
1002
}
1040
0.0
1002
}
1002
}
1002
}
1070
     0
1040
0.0
1002
{
1002
}
1002
}
1002
{
1002
}
1002
}
1002
{
1071
        3
1070
     3
1070
     0
1002
{
1070
     2
1070
     0
1070
     0
1040
0.0
1002
}
1070
     0
1070
     2
1002
{
1002
}
1002
}
1002
{
1040
8030.0
1040
190.3000030517578
1040
0.3050000071525574
1040
228.0
1040
545.0
1040
14.0
1040
17.39999961853027
1040
0.4560000002384186
1002
}
1002
}
  0
LINE
  5
41
330
1F
100
AcDbEntity
  8
0
100
AcDbLine
 10
4.266206778327603
 20
2.899986547358913
 30
0.0
 11
4.266206778327603
 21
12.94224841032958
 31
0.0
  0
LINE
  5
45
330
1F
100
AcDbEntity
  8
0
100
AcDbLine
 10
4.266206778327606
 20
50.89998654735891
 30
0.0
 11
34.86265000107184
 21
33.23512181646243
 31
0.0
  0
LINE
  5
46
330
1F
100
AcDbEntity
  8
0
100
AcDbLine
 10
4.266206778327605
 20
26.89998654735891
 30
0.0
 11
34.86265000107184
 21
9.235121816462436
 31
0.0
  0
LINE
  5
49
330
1F
100
AcDbEntity
  8
0
100
AcDbLine
 10
4.266206778327603
 20
2.899986547358913
 30
0.0
 11
34.86265000107184
 21
-14.76487818353756
 31
0.0
  0
LINE
  5
4A
330
1F
100
AcDbEntity
  8
0
100
AcDbLine
 10
6.266206778327604
 20
4.054687085738164
 30
0.0
 11
6.266206778327605
 21
12.89040700128023
 31
0.0
  0
LINE
  5
4B
330
1F
100
AcDbEntity
  8
0
100
AcDbLine
 10
6.266206778327607
 20
52.05468708573818
 30
0.0
 11
36.86265000107184
 21
34.3898223548417
 31
0.0
  0
LINE
  5
4C
330
1F
100
AcDbEntity
  8
0
100
AcDbLine
 10
6.266206778327604
 20
4.054687085738164
 30
0.0
 11
34.86265000107184
 21
-12.45547710677906
 31
0.0
  0
LINE
  5
4D
330
1F
100
AcDbEntity
  8
0
100
AcDbLine
 10
6.266206778327605
 20
28.05468708573816
 30
0.0
 11
34.86265000107184
 21
11.54452289322094
 31
0.0
  0
LINE
  5
4E
102
{ACAD_REACTORS
330
EA
102
}
330
1F
100
AcDbEntity
  8
0
100
AcDbLine
 10
6.266206778327605
 20
23.43588493222115
 30
0.0
 11
34.86265000107184
 21
6.925720739703932
 31
0.0
  0
LINE
  5
4F
102
{ACAD_REACTORS
330
C6
102
}
330
1F
100
AcDbEntity
  8
0
100
AcDbLine
 10
34.86265000107184
 20
-14.76487818353756
 30
0.0
 11
34.86265000107184
 21
-12.45547710677906
 31
0.0
  0
LINE
  5
50
330
1F
100
AcDbEntity
  8
0
100
AcDbLine
 10
4.266206778327603
 20
2.899986547358913
 30
0.0
 11
6.266206778327604
 21
4.054687085738164
 31
0.0
  0
LINE
  5
51
102
{ACAD_REACTORS
330
C6
102
}
330
1F
100
AcDbEntity
  8
0
100
AcDbLine
 10
34.86265000107184
 20
-14.76487818353756
 30
0.0
 11
36.86265000107184
 21
-13.61017764515831
 31
0.0
  0
LINE
  5
52
102
{ACAD_REACTORS
330
AC
102
}
330
1F
100
AcDbEntity
  8
0
100
AcDbLine
 10
34.86265000107184
 20
33.23512181646244
 30
0.0
 11
36.86265000107184
 21
34.3898223548417
 31
0.0
  0
LINE
  5
53
102
{ACAD_REACTORS
330
BD
102
}
330
1F
100
AcDbEntity
  8
0
100
AcDbLine
 10
34.86265000107184
 20
11.54452289322094
 30
0.0
 11
36.86265000107185
 21
12.69922343160019
 31
0.0
  0
LINE
  5
54
102
{ACAD_REACTORS
330
BD
102
}
330
1F
100
AcDbEntity
  8
0
100
AcDbLine
 10
34.86265000107184
 20
9.235121816462438
 30
0.0
 11
36.86265000107185
 21
10.38982235484169
 31
0.0
  0
LINE
  5
55
102
{ACAD_REACTORS
330
BD
330
EA
102
}
330
1F
100
AcDbEntity
  8
0
100
AcDbLine
 10
34.86265000107184
 20
6.925720739703933
 30
0.0
 11
36.86265000107185
 21
8.080421278083186
 31
0.0
  0
LINE
  5
56
102
{ACAD_REACTORS
330
C6
102
}
330
1F
100
AcDbEntity
  8
0
100
AcDbLine
 10
36.86265000107184
 20
-13.61017764515831
 30
0.0
 11
36.86265000107184
 21
-11.30077656839981
 31
0.0
  0
LINE
  5
57
330
1F
100
AcDbEntity
  8
0
100
AcDbLine
 10
4.266206778327607
 20
50.89998654735892
 30
0.0
 11
6.266206778327607
 21
52.05468708573818
 31
0.0
  0
LINE
  5
58
102
{ACAD_REACTORS
330
C6
102
}
330
1F
100
AcDbEntity
  8
0
100
AcDbLine
 10
34.86265000107184
 20
-12.45547710677906
 30
0.0
 11
36.86265000107184
 21
-11.30077656839981
 31
0.0
  0
LINE
  5
59
102
{ACAD_REACTORS
330
AC
330
E2
102
}
330
1F
100
AcDbEntity
  8
0
100
AcDbLine
 10
34.86265000107184
 20
30.92572073970394
 30
0.0
 11
36.86265000107184
 21
32.08042127808319
 31
0.0
  0
LINE
  5
5A
102
{ACAD_REACTORS
330
E2
102
}
330
1F
100
AcDbEntity
  8
0
100
AcDbLine
 10
6.266206778327606
 20
47.43588493222116
 30
0.0
 11
34.86265000107184
 21
30.92572073970394
 31
0.0
  0
LINE
  5
5B
330
1F
100
AcDbEntity
  8
0
100
AcDbLine
 10
6.266206778327606
 20
47.43588493222116
 30
0.0
 11
4.266206778327606
 21
50.89998654735891
 31
0.0
  0
LINE
  5
5C
330
1F
100
AcDbEntity
  8
0
100
AcDbLine
 10
6.266206778327605
 20
23.43588493222115
 30
0.0
 11
4.266206778327605
 21
26.89998654735891
 31
0.0
  0
LINE
  5
5D
330
1F
100
AcDbEntity
  8
0
100
AcDbLine
 10
4.266206778327605
 20
26.89998654735891
 30
0.0
 11
6.266206778327605
 21
28.05468708573816
 31
0.0
  0
LINE
  5
5E
330
1F
100
AcDbEntity
  8
0
100
AcDbLine
 10
6.266206778327605
 20
28.05468708573816
 30
0.0
 11
6.266206778327606
 21
47.43588493222116
 31
0.0
  0
LINE
  5
5F
102
{ACAD_REACTORS
330
BD
102
}
330
1F
100
AcDbEntity
  8
0
100
AcDbLine
 10
36.86265000107184
 20
8.080421278083184
 30
0.0
 11
36.86265000107184
 21
12.69922343160018
 31
0.0
  0
LINE
  5
60
102
{ACAD_REACTORS
330
BD
102
}
330
1F
100
AcDbEntity
  8
0
100
AcDbLine
 10
34.86265000107184
 20
6.925720739703931
 30
0.0
 11
34.86265000107184
 21
11.54452289322093
 31
0.0
  0
LINE
  5
61
102
{ACAD_REACTORS
330
AC
102
}
330
1F
100
AcDbEntity
  8
0
100
AcDbLine
 10
34.86265000107184
 20
30.92572073970394
 30
0.0
 11
34.86265000107184
 21
33.23512181646243
 31
0.0
  0
LINE
  5
62
102
{ACAD_REACTORS
330
AC
102
}
330
1F
100
AcDbEntity
  8
0
100
AcDbLine
 10
36.86265000107184
 20
32.08042127808319
 30
0.0
 11
36.86265000107184
 21
34.38982235484169
 31
0.0
  0
LINE
  5
64
102
{ACAD_REACTORS
330
E2
102
}
330
1F
100
AcDbEntity
  8
0
100
AcDbLine
 10
8.266206778327607
 20
29.20938762411741
 30
0.0
 11
36.86265000107184
 21
12.69922343160018
 31
0.0
  0
LINE
  5
65
330
1F
100
AcDbEntity
  8
0
100
AcDbLine
 10
6.266206778327605
 20
28.05468708573816
 30
0.0
 11
8.266206778327607
 21
29.20938762411741
 31
0.0
  0
LINE
  5
66
102
{ACAD_REACTORS
330
E2
102
}
330
1F
100
AcDbEntity
  8
0
100
AcDbLine
 10
8.266206778327607
 20
29.20938762411741
 30
0.0
 11
8.266206778327605
 21
46.28118439384191
 31
0.0
  0
LINE
  5
67
102
{ACAD_REACTORS
330
EA
102
}
330
1F
100
AcDbEntity
  8
0
100
AcDbLine
 10
8.266206778327607
 20
5.209387624117416
 30
0.0
 11
36.86265000107184
 21
-11.30077656839981
 31
0.0
  0
LINE
  5
68
102
{ACAD_REACTORS
330
EA
102
}
330
1F
100
AcDbEntity
  8
0
100
AcDbLine
 10
8.266206778327607
 20
5.209387624117409
 30
0.0
 11
8.266206778327607
 21
22.28118439384191
 31
0.0
  0
LINE
  5
69
330
1F
100
AcDbEntity
  8
0
100
AcDbLine
 10
6.266206778327607
 20
4.054687085738166
 30
0.0
 11
8.266206778327607
 21
5.209387624117416
 31
0.0
  0
LINE
  5
6A
102
{ACAD_REACTORS
330
AC
102
}
330
1F
100
AcDbEntity
  8
0
100
AcDbLine
 10
34.93765000107184
 20
31.05562455027161
 30
0.0
 11
34.93765000107184
 21
33.19182054627322
 31
0.0
  0
LINE
  5
6B
102
{ACAD_REACTORS
330
AC
102
}
330
1F
100
AcDbEntity
  8
0
100
AcDbLine
 10
34.93765000107184
 20
33.19182054627322
 30
0.0
 11
36.78765000107183
 21
34.25991854427402
 31
0.0
  0
LINE
  5
6C
102
{ACAD_REACTORS
330
AC
102
}
330
1F
100
AcDbEntity
  8
0
100
AcDbLine
 10
36.78765000107183
 20
32.12372254827242
 30
0.0
 11
36.78765000107183
 21
34.25991854427402
 31
0.0
  0
LINE
  5
6D
102
{ACAD_REACTORS
330
AC
102
}
330
1F
100
AcDbEntity
  8
0
100
AcDbLine
 10
34.93765000107184
 20
31.05562455027161
 30
0.0
 11
36.78765000107183
 21
32.12372254827242
 31
0.0
  0
LINE
  5
6E
102
{ACAD_REACTORS
330
BD
102
}
330
1F
100
AcDbEntity
  8
0
100
AcDbLine
 10
34.93765000107184
 20
11.50122162303171
 30
0.0
 11
36.78765000107183
 21
12.56931962103251
 31
0.0
  0
LINE
  5
6F
102
{ACAD_REACTORS
330
BD
102
}
330
1F
100
AcDbEntity
  8
0
100
AcDbLine
 10
34.93765000107184
 20
9.365025627030099
 30
0.0
 11
34.93765000107184
 21
11.50122162303171
 31
0.0
  0
LINE
  5
70
102
{ACAD_REACTORS
330
BD
102
}
330
1F
100
AcDbEntity
  8
0
100
AcDbLine
 10
34.93765000107184
 20
9.365025627030099
 30
0.0
 11
36.78765000107183
 21
10.4331236250309
 31
0.0
  0
LINE
  5
71
102
{ACAD_REACTORS
330
BD
102
}
330
1F
100
AcDbEntity
  8
0
100
AcDbLine
 10
36.78765000107183
 20
10.4331236250309
 30
0.0
 11
36.78765000107183
 21
12.56931962103251
 31
0.0
  0
LINE
  5
72
102
{ACAD_REACTORS
330
BD
102
}
330
1F
100
AcDbEntity
  8
0
100
AcDbLine
 10
34.93765000107184
 20
9.191820546273209
 30
0.0
 11
36.78765000107183
 21
10.25991854427401
 31
0.0
  0
LINE
  5
73
102
{ACAD_REACTORS
330
BD
102
}
330
1F
100
AcDbEntity
  8
0
100
AcDbLine
 10
34.93765000107184
 20
7.055624550271598
 30
0.0
 11
34.93765000107184
 21
9.191820546273209
 31
0.0
  0
LINE
  5
74
102
{ACAD_REACTORS
330
BD
102
}
330
1F
100
AcDbEntity
  8
0
100
AcDbLine
 10
34.93765000107184
 20
7.055624550271598
 30
0.0
 11
36.78765000107183
 21
8.123722548272407
 31
0.0
  0
LINE
  5
75
102
{ACAD_REACTORS
330
BD
102
}
330
1F
100
AcDbEntity
  8
0
100
AcDbLine
 10
36.78765000107183
 20
8.123722548272407
 30
0.0
 11
36.78765000107183
 21
10.25991854427401
 31
0.0
  0
LINE
  5
76
102
{ACAD_REACTORS
330
C6
102
}
330
1F
100
AcDbEntity
  8
0
100
AcDbLine
 10
34.93765000107184
 20
-12.49877837696828
 30
0.0
 11
36.78765000107183
 21
-11.43068037896748
 31
0.0
  0
LINE
  5
77
102
{ACAD_REACTORS
330
C6
102
}
330
1F
100
AcDbEntity
  8
0
100
AcDbLine
 10
34.93765000107184
 20
-14.63497437296989
 30
0.0
 11
34.93765000107184
 21
-12.49877837696828
 31
0.0
  0
LINE
  5
78
102
{ACAD_REACTORS
330
C6
102
}
330
1F
100
AcDbEntity
  8
0
100
AcDbLine
 10
34.93765000107184
 20
-14.63497437296989
 30
0.0
 11
36.78765000107183
 21
-13.56687637496908
 31
0.0
  0
LINE
  5
79
102
{ACAD_REACTORS
330
C6
102
}
330
1F
100
AcDbEntity
  8
0
100
AcDbLine
 10
36.78765000107183
 20
-13.56687637496908
 30
0.0
 11
36.78765000107183
 21
-11.43068037896748
 31
0.0
  0
LINE
  5
7A
330
1F
100
AcDbEntity
  8
0
100
AcDbLine
 10
34.93765000107184
 20
33.19182054627321
 30
0.0
 11
36.78765000107183
 21
32.12372254827241
 31
0.0
  0
LINE
  5
7B
330
1F
100
AcDbEntity
  8
0
100
AcDbLine
 10
34.93765000107184
 20
11.50122162303171
 30
0.0
 11
36.78765000107183
 21
10.4331236250309
 31
0.0
  0
LINE
  5
7C
330
1F
100
AcDbEntity
  8
0
100
AcDbLine
 10
34.93765000107184
 20
9.191820546273211
 30
0.0
 11
36.78765000107183
 21
8.123722548272406
 31
0.0
  0
LINE
  5
7D
330
1F
100
AcDbEntity
  8
0
100
AcDbLine
 10
34.93765000107184
 20
-12.49877837696828
 30
0.0
 11
36.78765000107183
 21
-13.56687637496908
 31
0.0
  0
LINE
  5
7E
102
{ACAD_REACTORS
330
E2
102
}
330
1F
100
AcDbEntity
  8
0
100
AcDbLine
 10
36.86265000107184
 20
12.69922343160018
 30
0.0
 11
36.86265000107183
 21
32.08042127808319
 31
0.0
  0
LINE
  5
7F
102
{ACAD_REACTORS
330
EA
102
}
330
1F
100
AcDbEntity
  8
0
100
AcDbLine
 10
36.86265000107183
 20
-11.30077656839981
 30
0.0
 11
36.86265000107184
 21
8.080421278083182
 31
0.0
  0
CIRCLE
  5
97
330
1F
100
AcDbEntity
  8
0
100
AcDbCircle
 10
38.77327891709745
 20
37.52213004365791
 30
0.0
 40
1.864534132616149
  0
MTEXT
  5
98
330
1F
100
AcDbEntity
  8
0
100
AcDbMText
 10
38.77406875578154
 20
37.63021900017305
 30
0.0
 40
2.25
 41
2.530874999999999
 71
     5
 72
     5
  1
{\fPanRoman|b0|i0|c2|p2;1}
 73
     1
 44
1.0
  0
HATCH
  5
AC
330
1F
100
AcDbEntity
  8
0
100
AcDbHatch
 10
0.0
 20
0.0
 30
0.0
210
0.0
220
0.0
230
1.0
  2
SOLID
 70
     1
 71
     1
 91
        2
 92
        7
 72
     0
 73
     1
 93
        4
 10
36.86265000107184
 20
34.3898223548417
 10
34.86265000107184
 20
33.23512181646244
 10
34.86265000107184
 20
30.92572073970393
 10
36.86265000107184
 20
32.0804212780832
 97
        4
330
52
330
61
330
59
330
62
 92
       22
 72
     0
 73
     1
 93
        4
 10
34.93765000107184
 20
33.19182054627322
 10
36.78765000107183
 20
34.25991854427403
 10
36.78765000107183
 20
32.12372254827242
 10
34.93765000107184
 20
31.05562455027161
 97
        4
330
6B
330
6C
330
6D
330
6A
 75
     0
 76
     1
 47
0.0146611116726952
 98
        2
 10
34.91351136403114
 20
32.68339575523993
 10
34.91351136403114
 20
32.68339575523993
  0
HATCH
  5
BD
330
1F
100
AcDbEntity
  8
0
100
AcDbHatch
 10
0.0
 20
0.0
 30
0.0
210
0.0
220
0.0
230
1.0
  2
SOLID
 70
     1
 71
     1
 91
        4
 92
        7
 72
     0
 73
     1
 93
        4
 10
36.86265000107184
 20
12.69922343160018
 10
34.86265000107184
 20
11.54452289322093
 10
34.86265000107184
 20
9.235121816462433
 10
36.86265000107184
 20
10.38982235484168
 97
        4
330
53
330
60
330
54
330
5F
 92
       22
 72
     0
 73
     1
 93
        4
 10
34.93765000107183
 20
11.50122162303171
 10
36.78765000107184
 20
12.56931962103251
 10
36.78765000107183
 20
10.43312362503091
 10
34.93765000107184
 20
9.365025627030098
 97
        4
330
6E
330
71
330
70
330
6F
 92
        7
 72
     0
 73
     1
 93
        4
 10
36.86265000107184
 20
10.38982235484168
 10
34.86265000107184
 20
9.235121816462434
 10
34.86265000107184
 20
6.925720739703931
 10
36.86265000107184
 20
8.080421278083182
 97
        4
330
54
330
60
330
55
330
5F
 92
       22
 72
     0
 73
     1
 93
        4
 10
34.93765000107184
 20
9.191820546273211
 10
36.78765000107183
 20
10.25991854427401
 10
36.78765000107183
 20
8.123722548272411
 10
34.93765000107184
 20
7.055624550271598
 97
        4
330
72
330
75
330
74
330
73
 75
     0
 76
     1
 47
0.0146611116726952
 98
        4
 10
34.91351136403114
 20
10.71120826501433
 10
34.91351136403114
 20
10.71120826501433
 10
34.91351136403114
 20
8.365430308356621
 10
34.91351136403114
 20
8.365430308356621
  0
HATCH
  5
C6
330
1F
100
AcDbEntity
  8
0
100
AcDbHatch
 10
0.0
 20
0.0
 30
0.0
210
0.0
220
0.0
230
1.0
  2
SOLID
 70
     1
 71
     1
 91
        2
 92
        7
 72
     0
 73
     1
 93
        4
 10
36.86265000107184
 20
-11.30077656839981
 10
34.86265000107184
 20
-12.45547710677906
 10
34.86265000107184
 20
-14.76487818353755
 10
36.86265000107184
 20
-13.61017764515831
 97
        4
330
58
330
4F
330
51
330
56
 92
       22
 72
     0
 73
     1
 93
        4
 10
34.93765000107184
 20
-12.49877837696828
 10
36.78765000107183
 20
-11.43068037896748
 10
36.78765000107183
 20
-13.56687637496907
 10
34.93765000107184
 20
-14.63497437296989
 97
        4
330
76
330
79
330
78
330
77
 75
     0
 76
     1
 47
0.0146611116726953
 98
        2
 10
34.89883586427271
 20
-12.97094873604462
 10
34.89883586427271
 20
-12.97094873604462
  0
CIRCLE
  5
C7
330
1F
100
AcDbEntity
  8
0
100
AcDbCircle
 10
3.80500695099916
 20
-19.62771226750456
 30
0.0
 40
1.864534132616149
  0
MTEXT
  5
C8
330
1F
100
AcDbEntity
  8
0
100
AcDbMText
 10
3.805796789683252
 20
-19.51962331098942
 30
0.0
 40
2.25
 41
2.530899999999999
 71
     5
 72
     5
  1
{\fPanRoman|b0|i0|c2|p2;5}
 73
     1
 44
1.0
  0
CIRCLE
  5
C9
330
1F
100
AcDbEntity
  8
0
100
AcDbCircle
 10
5.30697859894272
 20
14.48927185847255
 30
0.0
 40
1.864534132616149
  0
MTEXT
  5
CA
330
1F
100
AcDbEntity
  8
0
100
AcDbMText
 10
5.307768437626812
 20
14.59736081498768
 30
0.0
 40
2.25
 41
2.530899999999999
 71
     5
 72
     5
  1
{\fPanRoman|b0|i0|c2|p2;3}
 73
     1
 44
1.0
  0
CIRCLE
  5
CB
330
1F
100
AcDbEntity
  8
0
100
AcDbCircle
 10
39.21212912024518
 20
10.13869195719631
 30
0.0
 40
1.864534132616149
  0
MTEXT
  5
CC
330
1F
100
AcDbEntity
  8
0
100
AcDbMText
 10
39.21291895892927
 20
10.24678091371145
 30
0.0
 40
2.25
 41
2.530899999999999
 71
     5
 72
     5
  1
{\fPanRoman|b0|i0|c2|p2;4}
 73
     1
 44
1.0
  0
CIRCLE
  5
CF
330
1F
100
AcDbEntity
  8
0
100
AcDbCircle
 10
39.98947721934596
 20
-17.03347394275578
 30
0.0
 40
1.864534132616149
  0
MTEXT
  5
D0
330
1F
100
AcDbEntity
  8
0
100
AcDbMText
 10
39.99026705803006
 20
-16.92538498624064
 30
0.0
 40
2.25
 41
2.530899999999999
 71
     5
 72
     5
  1
{\fPanRoman|b0|i0|c2|p2;6}
 73
     1
 44
1.0
  0
CIRCLE
  5
D1
102
{ACAD_REACTORS
330
EA
102
}
330
1F
100
AcDbEntity
  8
0
100
AcDbCircle
 10
21.56395912419589
 20
5.844465675384327
 30
0.0
 40
1.864534132616149
  0
MTEXT
  5
D2
102
{ACAD_REACTORS
330
EA
102
}
330
1F
100
AcDbEntity
  8
0
100
AcDbMText
 10
21.56474896287998
 20
5.952554631899467
 30
0.0
 40
2.25
 41
2.530899999999999
 71
     5
 72
     5
  1
{\fPanRoman|b0|i0|c2|p2;2}
 73
     1
 44
1.0
  0
ARC
  5
D6
330
1F
100
AcDbEntity
  8
0
100
AcDbCircle
 10
35.87379772296647
 20
-14.20683633505807
 30
0.0
 40
1.154915763225658
100
AcDbArc
 50
208.8938464341703
 51
31.10615356582979
  0
LINE
  5
D7
330
1F
100
AcDbEntity
  8
0
100
AcDbLine
 10
4.64755089087291
 20
2.489948939493178
 30
0.0
 11
35.24399411361715
 21
-15.1749157914033
 31
0.0
  0
LINE
  5
D8
330
1F
100
AcDbEntity
  8
0
100
AcDbLine
 10
4.64755089087291
 20
2.489948939493178
 30
0.0
 11
4.811981819518986
 21
2.58488318041009
 31
0.0
  0
CIRCLE
  5
D9
102
{ACAD_REACTORS
330
E2
102
}
330
1F
100
AcDbEntity
  8
0
100
AcDbCircle
 10
21.59210847848018
 20
29.97751100881602
 30
0.0
 40
1.864534132616149
  0
MTEXT
  5
DA
102
{ACAD_REACTORS
330
E2
102
}
330
1F
100
AcDbEntity
  8
0
100
AcDbMText
 10
21.59289831716427
 20
30.08559996533116
 30
0.0
 40
2.25
 41
2.530899999999999
 71
     5
 72
     5
  1
{\fPanRoman|b0|i0|c2|p2;2}
 73
     1
 44
1.0
  0
HATCH
  5
E2
330
1F
100
AcDbEntity
  8
0
100
AcDbHatch
 10
0.0
 20
0.0
 30
0.0
210
0.0
220
0.0
230
1.0
  2
NET3
 70
     0
 71
     1
 91
        3
 92
        7
 72
     0
 73
     1
 93
        5
 10
36.86265000107184
 20
32.08042127808319
 10
34.86265000107184
 20
30.92572073970394
 10
8.266206778327607
 20
46.2811843938419
 10
8.266206778327607
 20
29.20938762411741
 10
36.86265000107184
 20
12.69922343160018
 97
        5
330
59
330
5A
330
66
330
64
330
7E
 92
       22
 72
     1
 73
     1
 93
        2
 10
19.72757434586403
 20
29.97751100881602
 42
-1.0
 10
23.45664261109633
 20
29.97751100881602
 42
-1.0
 97
        1
330
D9
 92
       24
 93
        4
 72
     1
 10
20.33656571804533
 20
31.78466384198314
 11
22.84923091628322
 21
31.78466384198314
 72
     1
 10
22.84923091628322
 20
31.78466384198314
 11
22.84923091628322
 21
28.38653608867918
 72
     1
 10
22.84923091628322
 20
28.38653608867918
 11
20.33656571804533
 21
28.38653608867918
 72
     1
 10
20.33656571804533
 20
28.38653608867918
 11
20.33656571804533
 21
31.78466384198314
 97
        1
330
DA
 75
     0
 76
     1
 52
30.0
 41
10.0
 77
     0
 78
     3
 53
30.0
 43
0.0
 44
0.0
 45
-0.625
 46
1.082531754730548
 79
     0
 53
90.0
 43
0.0
 44
0.0
 45
-1.25
 46
0.0000000000000003
 79
     0
 53
149.9999999999999
 43
0.0
 44
0.0
 45
-0.6250000000000002
 46
-1.082531754730548
 79
     0
 47
0.1663771979626638
 98
        2
 10
31.88818255452031
 20
22.30242214876315
 10
31.88818255452031
 20
22.30242214876315
  0
HATCH
  5
EA
330
1F
100
AcDbEntity
  8
0
100
AcDbHatch
 10
0.0
 20
0.0
 30
0.0
210
0.0
220
0.0
230
1.0
  2
NET
 70
     0
 71
     1
 91
        3
 92
        7
 72
     0
 73
     1
 93
        5
 10
36.86265000107184
 20
8.08042127808318
 10
34.86265000107184
 20
6.925720739703933
 10
8.266206778327607
 20
22.2811843938419
 10
8.266206778327607
 20
5.209387624117415
 10
36.86265000107183
 20
-11.3007765683998
 97
        5
330
55
330
4E
330
68
330
67
330
7F
 92
       22
 72
     1
 73
     1
 93
        2
 10
19.69942499157974
 20
5.844465675384327
 42
-1.0
 10
23.42849325681203
 20
5.844465675384327
 42
-1.0
 97
        1
330
D1
 92
       24
 93
        4
 72
     1
 10
20.30841636376103
 20
7.651618508551449
 11
22.82108156199892
 21
7.651618508551449
 72
     1
 10
22.82108156199892
 20
7.651618508551449
 11
22.82108156199892
 21
4.253490755247485
 72
     1
 10
22.82108156199892
 20
4.253490755247485
 11
20.30841636376103
 21
4.253490755247485
 72
     1
 10
20.30841636376103
 20
4.253490755247485
 11
20.30841636376103
 21
7.651618508551449
 97
        1
330
D2
 75
     0
 76
     1
 52
30.0
 41
3.0
 77
     0
 78
     2
 53
30.0
 43
-21.66453526315229
 44
-26.17588012500018
 45
-0.1875
 46
0.3247595264191645
 79
     0
 53
119.9999999999999
 43
-21.66453526315229
 44
-26.17588012500018
 45
-0.3247595264191645
 46
-0.1875
 79
     0
 47
0.0843333965958133
 98
        2
 10
25.36263484956271
 20
3.708386034102517
 10
25.36263484956271
 20
3.708386034102517
  0
LINE
  5
EB
330
1F
100
AcDbEntity
  8
0
100
AcDbLine
 10
6.266206778327605
 20
16.08813671566487
 30
0.0
 11
6.266206778327605
 21
23.43588493222115
 31
0.0
  0
LINE
  5
EC
330
1F
100
AcDbEntity
  8
0
100
AcDbLine
 10
4.266206778327604
 20
16.03629530661551
 30
0.0
 11
4.266206778327606
 21
50.89998654735891
 31
0.0
  0
LINE
  5
2CE
102
{ACAD_REACTORS
330
389
102
}
330
1F
100
AcDbEntity
  8
WALL
100
AcDbLine
 10
-8.48387252025061
 20
-17.13501393706033
 30
0.0
 11
-8.48387252025061
 21
-1.471503883850431
 31
0.0
  0
LINE
  5
2CF
102
{ACAD_REACTORS
330
389
102
}
330
1F
100
AcDbEntity
  8
WALL
100
AcDbLine
 10
-3.983872520250585
 20
-1.471503883850431
 30
0.0
 11
-3.983872520250592
 21
-17.13501393706033
 31
0.0
  0
LINE
  5
2D0
330
1F
100
AcDbEntity
  8
OBJECT
 48
0.5
100
AcDbLine
 10
-2.365106294096509
 20
-21.30714940462338
 30
0.0
 11
-0.4217890295913272
 21
-20.03549808764372
 31
0.0
  0
LINE
  5
2D1
330
1F
100
AcDbEntity
  8
OBJECT
 48
0.5
100
AcDbLine
 10
-2.324039501569099
 20
-21.36990702210135
 30
0.0
 11
-0.3807222370639174
 21
-20.09825570512169
 31
0.0
  0
LINE
  5
2D2
330
1F
100
AcDbEntity
  8
HIDDEN
100
AcDbLine
 10
-0.4340024091661725
 20
-19.58985318196843
 30
0.0
 11
-1.365765231091092
 21
-19.16201784779887
 31
0.0
  0
LINE
  5
2D3
330
1F
100
AcDbEntity
  8
HIDDEN
100
AcDbLine
 10
-0.4027063202986519
 20
-19.52169487490616
 30
0.0
 11
-1.334068313365168
 21
-19.09404358837675
 31
0.0
  0
INSERT
  5
2D4
330
1F
100
AcDbEntity
  8
OBJECT
100
AcDbBlockReference
  2
COMM SLIDE
 10
-8.147518667191167
 20
-6.244267516048537
 30
0.0
 41
0.75
 42
0.75
 43
0.75
 50
244.9999999999993
  0
ARC
  5
2D5
330
1F
100
AcDbEntity
  8
OBJECT
 48
0.5
100
AcDbCircle
 10
-2.221372520250586
 20
-21.52680106579628
 30
0.0
 40
0.1875
100
AcDbArc
 50
123.1995898616911
 51
180.0
  0
ARC
  5
2D6
330
1F
100
AcDbEntity
  8
OBJECT
 48
0.5
100
AcDbCircle
 10
-2.221372520250586
 20
-21.52680106579628
 30
0.0
 40
0.2625
100
AcDbArc
 50
123.1995898616911
 51
180.0
  0
LINE
  5
2D7
330
1F
100
AcDbEntity
  8
OBJECT
 48
0.5
100
AcDbLine
 10
-2.483872520250582
 20
-22.01880106579629
 30
0.0
 11
-2.483872520250582
 21
-21.52680106579628
 31
0.0
  0
LINE
  5
2D8
330
1F
100
AcDbEntity
  8
OBJECT
 48
0.5
100
AcDbLine
 10
-2.408872520250586
 20
-22.01880106579629
 30
0.0
 11
-2.408872520250586
 21
-21.52680106579628
 31
0.0
  0
LINE
  5
2D9
330
1F
100
AcDbEntity
  8
OBJECT
 48
0.5
100
AcDbLine
 10
-2.408872520250586
 20
-22.01880106579629
 30
0.0
 11
-2.483872520250582
 21
-22.01880106579629
 31
0.0
  0
LINE
  5
2DA
330
1F
100
AcDbEntity
  8
HIDDEN
 48
0.5
100
AcDbLine
 10
-2.408872520250586
 20
-21.67942606579627
 30
0.0
 11
-2.483872520250582
 21
-21.67942606579627
 31
0.0
  0
LINE
  5
2DB
330
1F
100
AcDbEntity
  8
HIDDEN
 48
0.5
100
AcDbLine
 10
-2.408872520250586
 20
-21.89017606579628
 30
0.0
 11
-2.483872520250582
 21
-21.89017606579628
 31
0.0
  0
LINE
  5
2DC
330
1F
100
AcDbEntity
  8
OBJECT
 48
0.5
100
AcDbLine
 10
-1.387086586019929
 20
-19.15222777161609
 30
0.0
 11
-2.330908831286929
 21
-18.71885514051425
 31
0.0
  0
LINE
  5
2DD
330
1F
100
AcDbEntity
  8
OBJECT
 48
0.5
100
AcDbLine
 10
-1.354632736571712
 20
-19.08460107074508
 30
0.0
 11
-2.299612742419409
 21
-18.65069683345197
 31
0.0
  0
ARC
  5
2DE
330
1F
100
AcDbEntity
  8
OBJECT
 48
0.5
100
AcDbCircle
 10
-2.221372520250586
 20
-18.48030106579627
 30
0.0
 40
0.1875
100
AcDbArc
 50
180.0
 51
245.3369440664884
  0
ARC
  5
2DF
330
1F
100
AcDbEntity
  8
OBJECT
 48
0.5
100
AcDbCircle
 10
-2.221372520250586
 20
-18.48030106579627
 30
0.0
 40
0.2625
100
AcDbArc
 50
180.0
 51
245.3369440664884
  0
LINE
  5
2E0
330
1F
100
AcDbEntity
  8
HIDDEN
 48
0.5
100
AcDbLine
 10
-2.296372520250582
 20
-18.7347130968799
 30
0.0
 11
-2.265076431383061
 21
-18.66655478981762
 31
0.0
  0
LINE
  5
2E1
330
1F
100
AcDbEntity
  8
HIDDEN
 48
0.5
100
AcDbLine
 10
-2.10484767740559
 20
-18.82265510659765
 30
0.0
 11
-2.073551588538048
 21
-18.75449679953537
 31
0.0
  0
LINE
  5
2E2
330
1F
100
AcDbEntity
  8
HIDDEN
 48
0.5
100
AcDbLine
 10
-2.040778868767045
 20
-18.85207343013313
 30
0.0
 11
-2.009482779899503
 21
-18.78391512307084
 31
0.0
  0
LINE
  5
2E3
330
1F
100
AcDbEntity
  8
OBJECT
 48
0.5
100
AcDbLine
 10
-2.483872520250582
 20
-18.48030106579627
 30
0.0
 11
-2.483872520250582
 21
-17.98830106579627
 31
0.0
  0
LINE
  5
2E4
330
1F
100
AcDbEntity
  8
OBJECT
 48
0.5
100
AcDbLine
 10
-2.408872520250586
 20
-18.48030106579627
 30
0.0
 11
-2.408872520250586
 21
-17.98830106579627
 31
0.0
  0
LINE
  5
2E5
330
1F
100
AcDbEntity
  8
HIDDEN
 48
0.5
100
AcDbLine
 10
-2.408872520250586
 20
-18.11692606579627
 30
0.0
 11
-2.483872520250582
 21
-18.11692606579627
 31
0.0
  0
LINE
  5
2E6
330
1F
100
AcDbEntity
  8
HIDDEN
 48
0.5
100
AcDbLine
 10
-2.408872520250586
 20
-18.32767606579628
 30
0.0
 11
-2.483872520250582
 21
-18.32767606579628
 31
0.0
  0
LINE
  5
2E7
330
1F
100
AcDbEntity
  8
OBJECT
 48
0.5
100
AcDbLine
 10
-2.408872520250586
 20
-17.98830106579627
 30
0.0
 11
-2.483872520250582
 21
-17.98830106579627
 31
0.0
  0
LINE
  5
2E8
330
1F
100
AcDbEntity
  8
HIDDEN
 48
0.5
100
AcDbLine
 10
-1.785185217283508
 20
-18.96943376338635
 30
0.0
 11
-1.753889128415966
 21
-18.90127545632409
 31
0.0
  0
LINE
  5
2E9
330
1F
100
AcDbEntity
  8
HIDDEN
 48
0.5
100
AcDbLine
 10
-1.849254025922032
 20
-18.9400154398509
 30
0.0
 11
-1.817957937054512
 21
-18.87185713278859
 31
0.0
  0
LINE
  5
2EA
330
1F
100
AcDbEntity
  8
HIDDEN
 48
0.5
100
AcDbLine
 10
-1.593660374438496
 20
-19.0573757731041
 30
0.0
 11
-1.562364285570975
 21
-18.98921746604184
 31
0.0
  0
LINE
  5
2EB
330
1F
100
AcDbEntity
  8
HIDDEN
 48
0.5
100
AcDbLine
 10
-1.52959156579995
 20
-19.0867940966396
 30
0.0
 11
-1.49829547693243
 21
-19.01863578957731
 31
0.0
  0
LINE
  5
2EC
330
1F
100
AcDbEntity
  8
HIDDEN
 48
0.5
100
AcDbLine
 10
-1.338066722954959
 20
-19.17473610635735
 30
0.0
 11
-1.306770634087417
 21
-19.10657779929506
 31
0.0
  0
ARC
  5
2ED
330
1F
100
AcDbEntity
  8
OBJECT
 48
0.5
100
AcDbCircle
 10
-0.4731225202505734
 20
-19.67505106579628
 30
0.0
 40
0.16875
100
AcDbArc
 50
0.0
 51
65.33694406648852
  0
ARC
  5
2EE
330
1F
100
AcDbEntity
  8
OBJECT
 48
0.5
100
AcDbCircle
 10
-0.4731225202505734
 20
-19.95705106579627
 30
0.0
 40
0.16875
100
AcDbArc
 50
303.199589861691
 51
0.0
  0
ARC
  5
2EF
330
1F
100
AcDbEntity
  8
OBJECT
 48
0.5
100
AcDbCircle
 10
-0.4731225202505734
 20
-19.95705106579627
 30
0.0
 40
0.09375
100
AcDbArc
 50
303.199589861691
 51
0.0
  0
LINE
  5
2F0
330
1F
100
AcDbEntity
  8
OBJECT
 48
0.5
100
AcDbLine
 10
-0.3793725202505733
 20
-19.95705106579627
 30
0.0
 11
-0.3793725202505733
 21
-19.67505106579628
 31
0.0
  0
ARC
  5
2F1
330
1F
100
AcDbEntity
  8
OBJECT
 48
0.5
100
AcDbCircle
 10
-0.4731225202505734
 20
-19.67505106579628
 30
0.0
 40
0.09375
100
AcDbArc
 50
0.0
 51
65.33694406648852
  0
LINE
  5
2F2
330
1F
100
AcDbEntity
  8
OBJECT
 48
0.5
100
AcDbLine
 10
-0.3043725202505776
 20
-19.95705106579627
 30
0.0
 11
-0.3043725202505776
 21
-19.67505106579628
 31
0.0
  0
LINE
  5
2F3
330
1F
100
AcDbEntity
  8
HIDDEN
 48
0.5
100
AcDbLine
 10
-1.082473071471422
 20
-19.29209643961059
 30
0.0
 11
-1.05117698260388
 21
-19.22393813254829
 31
0.0
  0
LINE
  5
2F4
330
1F
100
AcDbEntity
  8
HIDDEN
 48
0.5
100
AcDbLine
 10
-1.018404262832877
 20
-19.32151476314604
 30
0.0
 11
-0.9871081739653355
 21
-19.25335645608378
 31
0.0
  0
LINE
  5
2F5
330
1F
100
AcDbEntity
  8
HIDDEN
 48
0.5
100
AcDbLine
 10
-1.273997914316414
 20
-19.20415442989282
 30
0.0
 11
-1.242701825448893
 21
-19.13599612283054
 31
0.0
  0
LINE
  5
2F6
330
1F
100
AcDbEntity
  8
HIDDEN
 48
0.5
100
AcDbLine
 10
-0.8268794199878648
 20
-19.40945677286381
 30
0.0
 11
-0.7955833311203442
 21
-19.34129846580153
 31
0.0
  0
CIRCLE
  5
2F7
330
1F
100
AcDbEntity
  8
2''
100
AcDbCircle
 10
-0.9918312442801529
 20
-19.00023409773361
 30
0.0
 40
0.75
  0
CIRCLE
  5
2F8
330
1F
100
AcDbEntity
  8
2''
100
AcDbCircle
 10
-0.9918312442801529
 20
-19.00023409773361
 30
0.0
 40
0.5625
  0
LINE
  5
2F9
102
{ACAD_REACTORS
330
389
102
}
330
1F
100
AcDbEntity
  8
WALL
100
AcDbLine
 10
-8.483872520250589
 20
-17.13501393706033
 30
0.0
 11
-3.983872520250592
 21
-17.13501393706033
 31
0.0
  0
LINE
  5
2FA
330
1F
100
AcDbEntity
  8
DOOR
100
AcDbLine
 10
-3.983872520250592
 20
-17.13501393706033
 30
0.0
 11
-3.983872520250592
 21
-27.1655908123997
 31
0.0
  0
LINE
  5
2FB
330
1F
100
AcDbEntity
  8
DOOR
100
AcDbLine
 10
-2.483872520250592
 20
-17.13501393706033
 30
0.0
 11
-2.483872520250592
 21
-27.1655908123997
 31
0.0
  0
LINE
  5
2FC
330
1F
100
AcDbEntity
  8
DOOR
100
AcDbLine
 10
-3.983872520250592
 20
-17.13501393706033
 30
0.0
 11
-2.483872520250592
 21
-17.13501393706033
 31
0.0
  0
LINE
  5
2FD
330
1F
100
AcDbEntity
  8
TRACK
100
AcDbLine
 10
-2.025331200832617
 20
-27.1655908123997
 30
0.0
 11
-1.979242654485961
 21
-22.76461971035731
 31
0.0
  0
LINE
  5
2FE
330
1F
100
AcDbEntity
  8
TRACK
100
AcDbLine
 10
-0.5252489503710472
 20
-27.1655908123997
 30
0.0
 11
-0.4793249004376961
 21
-22.78032738653168
 31
0.0
  0
LINE
  5
2FF
330
1F
100
AcDbEntity
  8
TRACK
100
AcDbLine
 10
-1.979242654485961
 20
-22.76461971035731
 30
0.0
 11
-0.4793249004376961
 21
-22.78032738653168
 31
0.0
  0
LINE
  5
300
330
1F
100
AcDbEntity
  8
TRACK
100
AcDbLine
 10
0.1781465650820948
 20
-12.30093182800698
 30
0.0
 11
0.8575788683501635
 21
-1.471503883850431
 31
0.0
  0
LINE
  5
301
330
1F
100
AcDbEntity
  8
TRACK
100
AcDbLine
 10
-1.318909943278576
 20
-12.20700733293272
 30
0.0
 11
-0.6453704107413998
 21
-1.471503883850431
 31
0.0
  0
LINE
  5
302
330
1F
100
AcDbEntity
  8
Diverter
100
AcDbLine
 10
-1.976381408798371
 20
-22.68640289145742
 30
0.0
 11
-0.4793249004376961
 21
-22.78032738653168
 31
0.0
  0
LINE
  5
303
330
1F
100
AcDbEntity
  8
Diverter
100
AcDbLine
 10
-1.976381408798371
 20
-22.68640289145742
 30
0.0
 11
-1.318909943278576
 21
-12.20700733293272
 31
0.0
  0
LINE
  5
304
330
1F
100
AcDbEntity
  8
Diverter
100
AcDbLine
 10
-0.4793249004376641
 20
-22.78032738653168
 30
0.0
 11
-0.234787436814738
 21
-18.88266042366663
 31
0.0
  0
LINE
  5
305
330
1F
100
AcDbEntity
  8
Diverter
100
AcDbLine
 10
-0.4926728814907549
 20
-18.85810142894969
 30
0.0
 11
3.403946193086095
 21
-12.4137011900984
 31
0.0
  0
LINE
  5
306
330
1F
100
AcDbEntity
  8
Diverter
100
AcDbLine
 10
-0.0105484563339715
 20
-15.1617429493633
 30
0.0
 11
1.714457557353892
 21
-12.30885203191147
 31
0.0
  0
CIRCLE
  5
308
330
1F
100
AcDbEntity
  8
Diverter
100
AcDbCircle
 10
0.2449776081019834
 20
-14.24024440882133
 30
0.0
 40
0.1633860869813475
  0
LINE
  5
309
330
1F
100
AcDbEntity
  8
Diverter
  6
HIDDEN
100
AcDbLine
 10
0.408363695083331
 20
-14.24024440882133
 30
0.0
 11
0.1857095239283311
 21
-17.53629139545294
 31
0.0
  0
LINE
  5
30A
330
1F
100
AcDbEntity
  8
Diverter
100
AcDbLine
 10
0.1442661908727238
 20
-12.29880619211898
 30
0.0
 11
-0.0105484563339715
 21
-15.1617429493633
 31
0.0
  0
LINE
  5
30B
330
1F
100
AcDbEntity
  8
TRACK
100
AcDbLine
 10
-1.318909943278537
 20
-12.20700733293272
 30
0.0
 11
0.1781465650821374
 21
-12.30093182800698
 31
0.0
  0
LINE
  5
30C
330
1F
100
AcDbEntity
  8
Diverter
100
AcDbLine
 10
1.714457557353892
 20
-12.30885203191147
 30
0.0
 11
3.403946193086095
 21
-12.4137011900984
 31
0.0
  0
LINE
  5
30D
330
1F
100
AcDbEntity
  8
TRACK
100
AcDbLine
 10
1.714457557353892
 20
-12.30885203191147
 30
0.0
 11
2.447171123005343
 21
-7.185712231770594
 31
0.0
  0
LINE
  5
310
330
1F
100
AcDbEntity
  8
Diverter
  6
HIDDEN
100
AcDbLine
 10
0.081591521120636
 20
-14.24024440882133
 30
0.0
 11
-0.1440622700740288
 21
-18.28155384642162
 31
0.0
  0
LINE
  5
311
330
1F
100
AcDbEntity
  8
Diverter
100
AcDbLine
 10
-0.1440622700740288
 20
-18.28155384642162
 30
0.0
 11
0.1857095239283311
 21
-17.53629139545294
 31
0.0
  0
LINE
  5
312
330
1F
100
AcDbEntity
  8
Diverter
100
AcDbLine
 10
0.4190450279911424
 20
-14.28443926825124
 30
0.0
 11
-0.9496660174174458
 21
-17.2911202776356
 31
0.0
  0
LINE
  5
313
330
1F
100
AcDbEntity
  8
Diverter
100
AcDbLine
 10
0.1131900301167299
 20
-14.1694054734275
 30
0.0
 11
-1.713202589504444
 21
-18.30893230662876
 31
0.0
  0
LINE
  5
314
330
1F
100
AcDbEntity
  8
Diverter
100
AcDbLine
 10
-1.713202589504444
 20
-18.30893230662876
 30
0.0
 11
-0.9496660174174458
 21
-17.2911202776356
 31
0.0
  0
LINE
  5
327
330
1F
100
AcDbEntity
  8
DOOR
100
AcDbLine
 10
1.349164705000358
 20
-7.047166094724843
 30
0.0
 11
2.837364436035617
 21
-7.234946712858281
 31
0.0
  0
ARC
  5
328
330
1F
100
AcDbEntity
  8
2''
 48
0.5
100
AcDbCircle
 10
3.367263353130688
 20
-6.03090644425027
 30
0.0
 40
0.4425
100
AcDbArc
 50
352.8084405319176
 51
82.80844053191774
  0
ARC
  5
329
330
1F
100
AcDbEntity
  8
2''
 48
0.5
100
AcDbCircle
 10
3.367263353130688
 20
-6.03090644425027
 30
0.0
 40
0.4425
100
AcDbArc
 50
262.8084405319177
 51
352.8084405319176
  0
CIRCLE
  5
32A
330
1F
100
AcDbEntity
  8
2''
 48
0.5
100
AcDbCircle
 10
3.367263353130688
 20
-6.03090644425027
 30
0.0
 40
0.17325
  0
LINE
  5
32B
330
1F
100
AcDbEntity
  8
2''
 48
0.5
100
AcDbLine
 10
3.050608702721241
 20
-5.54494236906148
 30
0.0
 11
2.939818138022513
 21
-6.422980210372287
 31
0.0
  0
LINE
  5
32C
330
1F
100
AcDbEntity
  8
2''
 48
0.5
100
AcDbLine
 10
3.128739188600587
 20
-5.554800851513491
 30
0.0
 11
3.017948623901855
 21
-6.432838692824297
 31
0.0
  0
LINE
  5
32D
330
1F
100
AcDbEntity
  8
2''
 48
0.5
100
AcDbLine
 10
3.422658635480058
 20
-5.591887523594841
 30
0.0
 11
3.050608702721241
 21
-5.54494236906148
 31
0.0
  0
LINE
  5
32E
330
1F
100
AcDbEntity
  8
2''
 48
0.5
100
AcDbLine
 10
3.311868070781326
 20
-6.469925364905648
 30
0.0
 11
2.939818138022513
 21
-6.422980210372287
 31
0.0
  0
LINE
  5
32F
330
1F
100
AcDbEntity
  8
2''
 48
0.5
100
AcDbLine
 10
3.806282273786091
 20
-6.086301726599629
 30
0.0
 11
3.806282273786091
 21
-6.086301726599629
 31
0.0
  0
ARC
  5
330
330
1F
100
AcDbEntity
  8
2''
100
AcDbCircle
 10
3.367263353130688
 20
-6.03090644425027
 30
0.0
 40
0.75
100
AcDbArc
 50
232.8084405319177
 51
112.8084405319176
  0
ARC
  5
331
330
1F
100
AcDbEntity
  8
2''
100
AcDbCircle
 10
3.367263353130688
 20
-6.03090644425027
 30
0.0
 40
0.5625
100
AcDbArc
 50
220.9981256361391
 51
124.6187554276962
  0
LINE
  5
334
330
1F
100
AcDbEntity
  8
DOOR
100
AcDbLine
 10
1.349164705000358
 20
-7.047166094724843
 30
0.0
 11
2.052700174485291
 21
-1.471503883850431
 31
0.0
  0
LINE
  5
335
330
1F
100
AcDbEntity
  8
DOOR
100
AcDbLine
 10
2.837364436035617
 20
-7.234946712858281
 30
0.0
 11
3.564594010425434
 21
-1.471503883850431
 31
0.0
  0
LINE
  5
336
330
1F
100
AcDbEntity
  8
TRACK
100
AcDbLine
 10
3.403946193086095
 20
-12.4137011900984
 30
0.0
 11
4.779683026829619
 21
-1.471503883850431
 31
0.0
  0
LINE
  5
365
102
{ACAD_REACTORS
330
389
102
}
330
1F
100
AcDbEntity
  8
0
100
AcDbLine
 10
-12.61945123104456
 20
-1.471503883850431
 30
0.0
 11
8.329050738746786
 21
-1.471503883850431
 31
0.0
  0
LINE
  5
366
330
1F
100
AcDbEntity
  8
0
100
AcDbLine
 10
8.329050738746786
 20
-1.471503883850431
 30
0.0
 11
8.329050738746786
 21
-27.1655908123997
 31
0.0
  0
LINE
  5
367
330
1F
100
AcDbEntity
  8
0
100
AcDbLine
 10
8.329050738746786
 20
-27.1655908123997
 30
0.0
 11
-12.61945123104456
 21
-27.1655908123997
 31
0.0
  0
LINE
  5
368
330
1F
100
AcDbEntity
  8
0
100
AcDbLine
 10
-12.61945123104456
 20
-1.471503883850431
 30
0.0
 11
-12.61945123104456
 21
-27.1655908123997
 31
0.0
  0
HATCH
  5
389
330
1F
100
AcDbEntity
  8
0
100
AcDbHatch
 10
0.0
 20
0.0
 30
0.0
210
0.0
220
0.0
230
1.0
  2
AR-B816
 70
     0
 71
     1
 91
        1
 92
        7
 72
     0
 73
     1
 93
        4
 10
-8.48387252025061
 20
-17.13501393706033
 10
-3.983872520250592
 20
-17.13501393706033
 10
-3.983872520250582
 20
-1.471503883850427
 10
-8.483872520250612
 20
-1.471503883850427
 97
        4
330
365
330
2CE
330
2F9
330
2CF
 75
     0
 76
     1
 52
0.0
 41
0.525
 77
     0
 78
     2
 53
0.0
 43
20.36887768073407
 44
-21.33110841951846
 45
0.0
 46
4.199999999999999
 79
     0
 53
90.0
 43
20.36887768073407
 44
-21.33110841951846
 45
-4.199999999999999
 46
4.199999999999999
 79
     2
 49
4.199999999999999
 49
-4.199999999999999
 47
0.1381402520811848
 98
        1
 10
-6.604534847505288
 20
-10.79597083542998
  0
LINE
  5
3B2
330
1F
100
AcDbEntity
  8
0
100
AcDbLine
 10
32.09765470571443
 20
33.96251283333555
 30
0.0
 11
31.31823184230843
 21
33.51251283333555
 31
0.0
  0
LINE
  5
3B3
330
1F
100
AcDbEntity
  8
0
100
AcDbLine
 10
35.62661676263625
 20
35.99996002685934
 30
0.0
 11
36.40603962604224
 21
36.44996002685934
 31
0.0
  0
SOLID
  5
3B4
330
1F
100
AcDbEntity
  8
0
100
AcDbTrace
 10
32.02265470571443
 20
34.09241664390321
 30
0.0
 11
32.17265470571443
 21
33.83260902276788
 31
0.0
 12
32.87707756912042
 22
34.41251283333555
 32
0.0
 13
32.87707756912042
 23
34.41251283333555
 33
0.0
  0
SOLID
  5
3B5
330
1F
100
AcDbEntity
  8
0
100
AcDbTrace
 10
35.55161676263626
 20
36.129863837427
 30
0.0
 11
35.70161676263625
 21
35.87005621629168
 31
0.0
 12
34.84719389923025
 22
35.54996002685934
 32
0.0
 13
34.84719389923025
 23
35.54996002685934
 33
0.0
  0
LEADER
  5
3B7
330
1F
100
AcDbEntity
  8
0
100
AcDbLeader
  3
Standard
 73
     0
 74
     0
 75
     1
 40
0.9
 76
     4
 10
35.24399411361714
 20
-15.17491579140331
 30
0.0
 10
36.2590104442774
 20
-17.56988095617332
 30
0.0
 10
37.13962796026754
 20
-18.01988095617332
 30
0.0
 10
37.91905082367354
 20
-17.56988095617332
 30
0.0
340
3B8
211
0.8660254037844383
221
0.5000000000000006
231
0.0
213
0.0
223
-0.45
233
0.0
1001
ACAD
1000
DSTYLE
1002
{
1070
   147
1040
0.09
1070
    77
1070
     0
1002
}
  0
MTEXT
  5
3B8
102
{ACAD_REACTORS
330
3B7
102
}
330
1F
100
AcDbEntity
  8
0
100
AcDbMText
 10
38.30876225537654
 20
-16.89488095617332
 30
0.0
 40
0.9
 41
0.0
 71
     1
 72
     1
  1

 11
0.8660254037844383
 21
0.5000000000000006
 31
0.0
 73
     1
 44
1.0
  0
MTEXT
  5
3B9
330
1F
100
AcDbEntity
  8
0
100
AcDbMText
 10
49.23583302625427
 20
43.77157944523032
 30
0.0
 40
2.0
 41
80.20889999999999
 71
     1
 72
     5
  3
{\fDutch801 Rm BT|b0|i0|c0|p18;801 Security Door\P1.) 1" thick x 11ga. welded frame.\P2.) 16ga. 1/2" diamond mesh panels welded to frame.\P3.) Pre finished (power coated) standard safety yellow or industrial gray.\P4.) 1" x 2" frame for easy hardware
  3
 attachment and durability.\P5.) Available with dual track or diverter switch option.\P6.) N/A for security door.\P\P802 Screen Door\P1.) 2" thick x .075 aluminum frame mortised and riveted for added durability.\P2.) 18 x 16 or 30 x 30 stainless stee
  3
l mesh or 18 x 16 polyester vinyl screen. Panels secured by vinyl snap in bead. frame.\P3.) Pre finished (power coated) standard safety yellow or industrial gray.\P4.) 2" x 2" frame for easy hardware attachment and durability.\P5.) Available with dua
  1
l track or diverter switch option.\P6.) Section seal and vinyl bottom astragal ensures pest control..  }
 73
     1
 44
1.0
  0
ENDSEC
  0
SECTION
  2
OBJECTS
  0
DICTIONARY
  5
C
330
0
100
AcDbDictionary
281
     1
  3
ACAD_GROUP
350
D
  3
ACAD_LAYOUT
350
1A
  3
ACAD_MLINESTYLE
350
17
  3
ACAD_PLOTSETTINGS
350
19
  3
ACAD_PLOTSTYLENAME
350
E
  3
AcDbVariableDictionary
350
47
  3
DWGPROPS
350
ED
  0
DICTIONARY
  5
D
102
{ACAD_REACTORS
330
C
102
}
330
C
100
AcDbDictionary
281
     1
  0
DICTIONARY
  5
1A
102
{ACAD_REACTORS
330
C
102
}
330
C
100
AcDbDictionary
281
     1
  3
Layout1
350
1E
  3
Layout2
350
26
  3
Model
350
22
  0
DICTIONARY
  5
17
102
{ACAD_REACTORS
330
C
102
}
330
C
100
AcDbDictionary
281
     1
  3
Standard
350
18
  0
DICTIONARY
  5
19
102
{ACAD_REACTORS
330
C
102
}
330
C
100
AcDbDictionary
281
     1
  0
ACDBDICTIONARYWDFLT
  5
E
102
{ACAD_REACTORS
330
C
102
}
330
C
100
AcDbDictionary
281
     1
  3
Normal
350
F
100
AcDbDictionaryWithDefault
340
F
  0
DICTIONARY
  5
47
102
{ACAD_REACTORS
330
C
102
}
330
C
100
AcDbDictionary
281
     1
  3
SORTENTS
350
48
  0
XRECORD
  5
ED
102
{ACAD_REACTORS
330
C
102
}
330
C
100
AcDbXrecord
280
     1
  1
DWGPROPS COOKIE
  2

  3

  4

  6

  7

  8
DBrewer
  9

300
=
301
=
302
=
303
=
304
=
305
=
306
=
307
=
308
=
309
=
 40
0.0986720601851852
 41
2453137.446578194
 42
2453137.545250069
  1

 90
        0
  0
LAYOUT
  5
1E
102
{ACAD_REACTORS
330
1A
102
}
330
1A
100
AcDbPlotSettings
  1

  2
Acrobat Distiller
  4

  6

 40
0.0
 41
0.0
 42
0.0
 43
0.0
 44
0.0
 45
0.0
 46
0.0
 47
0.0
 48
0.0
 49
0.0
140
0.0
141
0.0
142
1.0
143
1.0
 70
   688
 72
     0
 73
     0
 74
     5
  7
monochrome.ctb
 75
    16
147
1.0
148
0.0
149
0.0
100
AcDbLayout
  1
Layout1
 70
     1
 71
     1
 10
0.0
 20
0.0
 11
12.0
 21
9.0
 12
0.0
 22
0.0
 32
0.0
 14
1.000000000000000E+20
 24
1.000000000000000E+20
 34
1.000000000000000E+20
 15
-1.000000000000000E+20
 25
-1.000000000000000E+20
 35
-1.000000000000000E+20
146
0.0
 13
0.0
 23
0.0
 33
0.0
 16
1.0
 26
0.0
 36
0.0
 17
0.0
 27
1.0
 37
0.0
 76
     0
330
1B
  0
LAYOUT
  5
26
102
{ACAD_REACTORS
330
1A
102
}
330
1A
100
AcDbPlotSettings
  1

  2
Acrobat Distiller
  4

  6

 40
0.0
 41
0.0
 42
0.0
 43
0.0
 44
0.0
 45
0.0
 46
0.0
 47
0.0
 48
0.0
 49
0.0
140
0.0
141
0.0
142
1.0
143
1.0
 70
   688
 72
     0
 73
     0
 74
     5
  7
monochrome.ctb
 75
    16
147
1.0
148
0.0
149
0.0
100
AcDbLayout
  1
Layout2
 70
     1
 71
     2
 10
0.0
 20
0.0
 11
12.0
 21
9.0
 12
0.0
 22
0.0
 32
0.0
 14
0.0
 24
0.0
 34
0.0
 15
0.0
 25
0.0
 35
0.0
146
0.0
 13
0.0
 23
0.0
 33
0.0
 16
1.0
 26
0.0
 36
0.0
 17
0.0
 27
1.0
 37
0.0
 76
     0
330
23
  0
LAYOUT
  5
22
102
{ACAD_REACTORS
330
1A
102
}
330
1A
100
AcDbPlotSettings
  1

  2
Acrobat Distiller
  4
Letter
  6

 40
3.174999952316284
 41
3.174999952316284
 42
3.175003051757812
 43
3.17498779296875
 44
215.8999938964843
 45
279.3999938964843
 46
28.70199999999999
 47
0.0
 48
0.0
 49
0.0
140
0.0
141
0.0
142
1.0
143
13.21887777494437
 70
 11956
 72
     0
 73
     1
 74
     1
  7
monochrome.ctb
 75
     0
147
0.0756493869619888
148
320.5768879246734
149
690.0781330205821
100
AcDbLayout
  1
Model
 70
     1
 71
     0
 10
0.0
 20
0.0
 11
12.0
 21
9.0
 12
0.0
 22
0.0
 32
0.0
 14
0.0
 24
0.0
 34
0.0
 15
0.0
 25
0.0
 35
0.0
146
0.0
 13
0.0
 23
0.0
 33
0.0
 16
1.0
 26
0.0
 36
0.0
 17
0.0
 27
1.0
 37
0.0
 76
     0
330
1F
  0
MLINESTYLE
  5
18
102
{ACAD_REACTORS
330
17
102
}
330
17
100
AcDbMlineStyle
  2
STANDARD
 70
     0
  3

 62
   256
 51
90.0
 52
90.0
 71
     2
 49
0.5
 62
   256
  6
BYLAYER
 49
-0.5
 62
   256
  6
BYLAYER
  0
ACDBPLACEHOLDER
  5
F
102
{ACAD_REACTORS
330
E
102
}
330
E
  0
DICTIONARYVAR
  5
48
102
{ACAD_REACTORS
330
47
102
}
330
47
100
DictionaryVariables
280
     0
  1
96
  0
ENDSEC
  0
EOF
