  0
SECTION
  2
HEADER
  9
$ACADVER
  1
AC1021
  9
$ACADMAINTVER
 70
    50
  9
$DWGCODEPAGE
  3
ANSI_1252
  9
$LASTSAVEDBY
  1
DBrewer
  9
$INSBASE
 10
0.0
 20
0.0
 30
0.0
  9
$EXTMIN
 10
-0.5003814406231762
 20
-0.5002898948736139
 30
-0.0015258207003583
  9
$EXTMAX
 10
11.5006561564522
 20
9.000289939111436
 30
0.0000000349246037
  9
$LIMMIN
 10
0.0
 20
0.0
  9
$LIMMAX
 10
12.0
 20
9.0
  9
$ORTHOMODE
 70
     1
  9
$REGENMODE
 70
     1
  9
$FILLMODE
 70
     1
  9
$QTEXTMODE
 70
     0
  9
$MIRRTEXT
 70
     1
  9
$LTSCALE
 40
0.25
  9
$ATTMODE
 70
     1
  9
$TEXTSIZE
 40
0.07
  9
$TRACEWID
 40
0.05
  9
$TEXTSTYLE
  7
ARIAL2
  9
$CLAYER
  8
HL-TRACK
  9
$CELTYPE
  6
BYLAYER
  9
$CECOLOR
 62
   256
  9
$CELTSCALE
 40
1.0
  9
$DISPSILH
 70
     0
  9
$DIMSCALE
 40
1.0
  9
$DIMASZ
 40
0.07
  9
$DIMEXO
 40
0.09
  9
$DIMDLI
 40
0.38
  9
$DIMRND
 40
0.0
  9
$DIMDLE
 40
0.0
  9
$DIMEXE
 40
0.06
  9
$DIMTP
 40
0.0
  9
$DIMTM
 40
0.0
  9
$DIMTXT
 40
0.07
  9
$DIMCEN
 40
0.09
  9
$DIMTSZ
 40
0.0
  9
$DIMTOL
 70
     0
  9
$DIMLIM
 70
     0
  9
$DIMTIH
 70
     0
  9
$DIMTOH
 70
     1
  9
$DIMSE1
 70
     0
  9
$DIMSE2
 70
     0
  9
$DIMTAD
 70
     0
  9
$DIMZIN
 70
     0
  9
$DIMBLK
  1

  9
$DIMASO
 70
     1
  9
$DIMSHO
 70
     0
  9
$DIMPOST
  1

  9
$DIMAPOST
  1

  9
$DIMALT
 70
     0
  9
$DIMALTD
 70
     2
  9
$DIMALTF
 40
25.4
  9
$DIMLFAC
 40
1.0
  9
$DIMTOFL
 70
     0
  9
$DIMTVP
 40
0.0
  9
$DIMTIX
 70
     1
  9
$DIMSOXD
 70
     0
  9
$DIMSAH
 70
     0
  9
$DIMBLK1
  1

  9
$DIMBLK2
  1

  9
$DIMSTYLE
  2
STANDARD
  9
$DIMCLRD
 70
     0
  9
$DIMCLRE
 70
     0
  9
$DIMCLRT
 70
     0
  9
$DIMTFAC
 40
1.0
  9
$DIMGAP
 40
0.09
  9
$DIMJUST
 70
     0
  9
$DIMSD1
 70
     0
  9
$DIMSD2
 70
     0
  9
$DIMTOLJ
 70
     1
  9
$DIMTZIN
 70
     0
  9
$DIMALTZ
 70
     0
  9
$DIMALTTZ
 70
     0
  9
$DIMUPT
 70
     0
  9
$DIMDEC
 70
     4
  9
$DIMTDEC
 70
     4
  9
$DIMALTU
 70
     2
  9
$DIMALTTD
 70
     2
  9
$DIMTXSTY
  7
STANDARD
  9
$DIMAUNIT
 70
     0
  9
$DIMADEC
 70
     0
  9
$DIMALTRND
 40
0.0
  9
$DIMAZIN
 70
     0
  9
$DIMDSEP
 70
    46
  9
$DIMATFIT
 70
     3
  9
$DIMFRAC
 70
     0
  9
$DIMLDRBLK
  1

  9
$DIMLUNIT
 70
     2
  9
$DIMLWD
 70
    -2
  9
$DIMLWE
 70
    -2
  9
$DIMTMOVE
 70
     2
  9
$DIMFXL
 40
1.0
  9
$DIMFXLON
 70
     0
  9
$DIMJOGANG
 40
0.7853981633974483
  9
$DIMTFILL
 70
     0
  9
$DIMTFILLCLR
 70
     0
  9
$DIMARCSYM
 70
     0
  9
$DIMLTYPE
  6

  9
$DIMLTEX1
  6

  9
$DIMLTEX2
  6

  9
$LUNITS
 70
     2
  9
$LUPREC
 70
     4
  9
$SKETCHINC
 40
0.1
  9
$FILLETRAD
 40
0.0277878858050222
  9
$AUNITS
 70
     0
  9
$AUPREC
 70
     0
  9
$MENU
  1
ACAD
  9
$ELEVATION
 40
0.0
  9
$PELEVATION
 40
0.0
  9
$THICKNESS
 40
0.0
  9
$LIMCHECK
 70
     0
  9
$CHAMFERA
 40
0.0
  9
$CHAMFERB
 40
0.0
  9
$CHAMFERC
 40
0.0
  9
$CHAMFERD
 40
0.0
  9
$SKPOLY
 70
     0
  9
$TDCREATE
 40
2449766.696775116
  9
$TDUCREATE
 40
2449766.863441783
  9
$TDUPDATE
 40
2455709.569053692
  9
$TDUUPDATE
 40
2455709.735720359
  9
$TDINDWG
 40
0.0333294329
  9
$TDUSRTIMER
 40
0.0333294329
  9
$USRTIMER
 70
     1
  9
$ANGBASE
 50
0.0
  9
$ANGDIR
 70
     0
  9
$PDMODE
 70
     0
  9
$PDSIZE
 40
0.0
  9
$PLINEWID
 40
0.0
  9
$SPLFRAME
 70
     0
  9
$SPLINETYPE
 70
     6
  9
$SPLINESEGS
 70
     8
  9
$HANDSEED
  5
70E
  9
$SURFTAB1
 70
     6
  9
$SURFTAB2
 70
     6
  9
$SURFTYPE
 70
     6
  9
$SURFU
 70
     6
  9
$SURFV
 70
     6
  9
$UCSBASE
  2

  9
$UCSNAME
  2

  9
$UCSORG
 10
0.0
 20
0.0
 30
0.0
  9
$UCSXDIR
 10
1.0
 20
0.0
 30
0.0
  9
$UCSYDIR
 10
0.0
 20
1.0
 30
0.0
  9
$UCSORTHOREF
  2

  9
$UCSORTHOVIEW
 70
     0
  9
$UCSORGTOP
 10
0.0
 20
0.0
 30
0.0
  9
$UCSORGBOTTOM
 10
0.0
 20
0.0
 30
0.0
  9
$UCSORGLEFT
 10
0.0
 20
0.0
 30
0.0
  9
$UCSORGRIGHT
 10
0.0
 20
0.0
 30
0.0
  9
$UCSORGFRONT
 10
0.0
 20
0.0
 30
0.0
  9
$UCSORGBACK
 10
0.0
 20
0.0
 30
0.0
  9
$PUCSBASE
  2

  9
$PUCSNAME
  2

  9
$PUCSORG
 10
0.0
 20
0.0
 30
0.0
  9
$PUCSXDIR
 10
1.0
 20
0.0
 30
0.0
  9
$PUCSYDIR
 10
0.0
 20
1.0
 30
0.0
  9
$PUCSORTHOREF
  2

  9
$PUCSORTHOVIEW
 70
     0
  9
$PUCSORGTOP
 10
0.0
 20
0.0
 30
0.0
  9
$PUCSORGBOTTOM
 10
0.0
 20
0.0
 30
0.0
  9
$PUCSORGLEFT
 10
0.0
 20
0.0
 30
0.0
  9
$PUCSORGRIGHT
 10
0.0
 20
0.0
 30
0.0
  9
$PUCSORGFRONT
 10
0.0
 20
0.0
 30
0.0
  9
$PUCSORGBACK
 10
0.0
 20
0.0
 30
0.0
  9
$USERI1
 70
     0
  9
$USERI2
 70
     0
  9
$USERI3
 70
     0
  9
$USERI4
 70
     0
  9
$USERI5
 70
     0
  9
$USERR1
 40
0.0
  9
$USERR2
 40
0.0
  9
$USERR3
 40
0.0
  9
$USERR4
 40
0.0
  9
$USERR5
 40
0.0
  9
$WORLDVIEW
 70
     1
  9
$SHADEDGE
 70
     3
  9
$SHADEDIF
 70
    70
  9
$TILEMODE
 70
     1
  9
$MAXACTVP
 70
    16
  9
$PINSBASE
 10
0.0
 20
0.0
 30
0.0
  9
$PLIMCHECK
 70
     0
  9
$PEXTMIN
 10
1.000000000000000E+20
 20
1.000000000000000E+20
 30
1.000000000000000E+20
  9
$PEXTMAX
 10
-1.000000000000000E+20
 20
-1.000000000000000E+20
 30
-1.000000000000000E+20
  9
$PLIMMIN
 10
0.0
 20
0.0
  9
$PLIMMAX
 10
12.0
 20
9.0
  9
$UNITMODE
 70
     0
  9
$VISRETAIN
 70
     0
  9
$PLINEGEN
 70
     0
  9
$PSLTSCALE
 70
     0
  9
$TREEDEPTH
 70
  3020
  9
$CMLSTYLE
  2
STANDARD
  9
$CMLJUST
 70
     0
  9
$CMLSCALE
 40
1.0
  9
$PROXYGRAPHICS
 70
     1
  9
$MEASUREMENT
 70
     0
  9
$CELWEIGHT
370
    -1
  9
$ENDCAPS
280
     0
  9
$JOINSTYLE
280
     0
  9
$LWDISPLAY
290
     0
  9
$INSUNITS
 70
     0
  9
$HYPERLINKBASE
  1

  9
$STYLESHEET
  1
monochrome.ctb
  9
$XEDIT
290
     1
  9
$CEPSNTYPE
380
     0
  9
$PSTYLEMODE
290
     1
  9
$FINGERPRINTGUID
  2
{FBDC1B7F-F08C-11D4-8FEB-0001036949CE}
  9
$VERSIONGUID
  2
{520988A8-F20B-4563-9ADC-AA7F164A9389}
  9
$EXTNAMES
290
     1
  9
$PSVPSCALE
 40
0.0
  9
$OLESTARTUP
290
     0
  9
$SORTENTS
280
   127
  9
$INDEXCTL
280
     0
  9
$HIDETEXT
280
     0
  9
$XCLIPFRAME
290
     0
  9
$HALOGAP
280
     0
  9
$OBSCOLOR
 70
   257
  9
$OBSLTYPE
280
     0
  9
$INTERSECTIONDISPLAY
280
     0
  9
$INTERSECTIONCOLOR
 70
   257
  9
$DIMASSOC
280
     1
  9
$PROJECTNAME
  1

  9
$CAMERADISPLAY
290
     0
  9
$LENSLENGTH
 40
50.0
  9
$CAMERAHEIGHT
 40
0.0
  9
$STEPSPERSEC
 40
2.0
  9
$STEPSIZE
 40
6.0
  9
$3DDWFPREC
 40
2.0
  9
$PSOLWIDTH
 40
0.25
  9
$PSOLHEIGHT
 40
4.0
  9
$LOFTANG1
 40
1.570796326794896
  9
$LOFTANG2
 40
1.570796326794896
  9
$LOFTMAG1
 40
0.0
  9
$LOFTMAG2
 40
0.0
  9
$LOFTPARAM
 70
     7
  9
$LOFTNORMALS
280
     1
  9
$LATITUDE
 40
37.795
  9
$LONGITUDE
 40
-122.394
  9
$NORTHDIRECTION
 40
0.0
  9
$TIMEZONE
 70
 -8000
  9
$LIGHTGLYPHDISPLAY
280
     1
  9
$TILEMODELIGHTSYNCH
280
     1
  9
$CMATERIAL
347
612
  9
$SOLIDHIST
280
     1
  9
$SHOWHIST
280
     1
  9
$DWFFRAME
280
     2
  9
$DGNFRAME
280
     0
  9
$REALWORLDSCALE
290
     1
  9
$INTERFERECOLOR
 62
     1
  9
$INTERFEREOBJVS
345
634
  9
$INTERFEREVPVS
346
631
  9
$CSHADOW
280
     0
  9
$SHADOWPLANELOCATION
 40
0.0
  0
ENDSEC
  0
SECTION
  2
CLASSES
  0
CLASS
  1
DICTIONARYVAR
  2
AcDbDictionaryVar
  3
ObjectDBX Classes
 90
        0
 91
       17
280
     0
281
     0
  0
CLASS
  1
ACDBDICTIONARYWDFLT
  2
AcDbDictionaryWithDefault
  3
ObjectDBX Classes
 90
        0
 91
        1
280
     0
281
     0
  0
CLASS
  1
MATERIAL
  2
AcDbMaterial
  3
ObjectDBX Classes
 90
     1153
 91
        3
280
     0
281
     0
  0
CLASS
  1
VISUALSTYLE
  2
AcDbVisualStyle
  3
ObjectDBX Classes
 90
     4095
 91
       24
280
     0
281
     0
  0
CLASS
  1
TABLESTYLE
  2
AcDbTableStyle
  3
ObjectDBX Classes
 90
     4095
 91
        1
280
     0
281
     0
  0
CLASS
  1
SCALE
  2
AcDbScale
  3
ObjectDBX Classes
 90
     1153
 91
       17
280
     0
281
     0
  0
CLASS
  1
MLEADERSTYLE
  2
AcDbMLeaderStyle
  3
ACDB_MLEADERSTYLE_CLASS
 90
     4095
 91
        1
280
     0
281
     0
  0
CLASS
  1
CELLSTYLEMAP
  2
AcDbCellStyleMap
  3
ObjectDBX Classes
 90
     1152
 91
        2
280
     0
281
     0
  0
ENDSEC
  0
SECTION
  2
TABLES
  0
TABLE
  2
VPORT
  5
8
330
0
100
AcDbSymbolTable
 70
     1
  0
VPORT
  5
60F
330
8
100
AcDbSymbolTableRecord
100
AcDbViewportTableRecord
  2
*Active
 70
     0
 10
0.0
 20
0.0
 11
1.0
 21
1.0
 12
5.142818850649906
 22
4.287753772436524
 13
0.0
 23
0.0
 14
0.03125
 24
0.03125
 15
0.0
 25
0.0
 16
0.0
 26
0.0
 36
1.0
 17
0.3573185072646075
 27
-0.0377537503176128
 37
-0.833359574243258
 40
9.565536050925986
 41
1.448863636363636
 42
50.0
 43
0.0
 44
0.0
 50
0.0
 51
0.0
 71
     0
 72
   100
 73
     1
 74
     0
 75
     0
 76
     0
 77
     0
 78
     0
281
     0
 65
     1
110
0.0
120
0.0
130
0.0
111
1.0
121
0.0
131
0.0
112
0.0
122
1.0
132
0.0
 79
     0
146
0.0
348
630
 60
     3
 61
     5
292
     1
282
     1
141
0.0
142
0.0
 63
   250
421
  3355443
  0
ENDTAB
  0
TABLE
  2
LTYPE
  5
5
330
0
100
AcDbSymbolTable
 70
     5
  0
LTYPE
  5
11
330
5
100
AcDbSymbolTableRecord
100
AcDbLinetypeTableRecord
  2
BYBLOCK
 70
     0
  3

 72
    65
 73
     0
 40
0.0
  0
LTYPE
  5
12
330
5
100
AcDbSymbolTableRecord
100
AcDbLinetypeTableRecord
  2
BYLAYER
 70
     0
  3

 72
    65
 73
     0
 40
0.0
  0
LTYPE
  5
13
330
5
100
AcDbSymbolTableRecord
100
AcDbLinetypeTableRecord
  2
CONTINUOUS
 70
     0
  3
Solid line
 72
    65
 73
     0
 40
0.0
  0
LTYPE
  5
23
330
5
100
AcDbSymbolTableRecord
100
AcDbLinetypeTableRecord
  2
CENTER
 70
     0
  3
____ _ ____ _ ____ _ ____ _ ____ _ ____ _ ____
 72
    65
 73
     4
 40
2.0
 49
1.25
 74
     0
 49
-0.25
 74
     0
 49
0.25
 74
     0
 49
-0.25
 74
     0
  0
LTYPE
  5
24
330
5
100
AcDbSymbolTableRecord
100
AcDbLinetypeTableRecord
  2
HIDDEN
 70
     0
  3
_ _ _ _ _ _ _ _ _ _ _ _ _ _ _ _ _ _ _ _ _ _ _
 72
    65
 73
     2
 40
0.375
 49
0.25
 74
     0
 49
-0.125
 74
     0
  0
LTYPE
  5
25
330
5
100
AcDbSymbolTableRecord
100
AcDbLinetypeTableRecord
  2
PHANTOM
 70
     0
  3
_____ _ _ _____ _ _ _____ _ _ _____ _ _ ____
 72
    65
 73
     6
 40
2.5
 49
1.25
 74
     0
 49
-0.25
 74
     0
 49
0.25
 74
     0
 49
-0.25
 74
     0
 49
0.25
 74
     0
 49
-0.25
 74
     0
  0
ENDTAB
  0
TABLE
  2
LAYER
  5
2
102
{ACAD_XDICTIONARY
360
668
102
}
330
0
100
AcDbSymbolTable
 70
     4
  0
LAYER
  5
E
102
{ACAD_XDICTIONARY
360
676
102
}
330
2
100
AcDbSymbolTableRecord
100
AcDbLayerTableRecord
  2
0
 70
     0
 62
     7
  6
CONTINUOUS
370
    -3
390
576
347
622
  0
LAYER
  5
28
102
{ACAD_XDICTIONARY
360
678
102
}
330
2
100
AcDbSymbolTableRecord
100
AcDbLayerTableRecord
  2
PAPER
 70
     0
 62
     2
  6
CONTINUOUS
370
    -3
390
576
347
622
  0
LAYER
  5
2A
102
{ACAD_XDICTIONARY
360
67A
102
}
330
2
100
AcDbSymbolTableRecord
100
AcDbLayerTableRecord
  2
HL-TRACK
 70
     0
 62
     2
  6
CONTINUOUS
370
    -3
390
576
347
622
  0
LAYER
  5
2F
330
2
100
AcDbSymbolTableRecord
100
AcDbLayerTableRecord
  2
DEFPOINTS
 70
     0
 62
     7
  6
CONTINUOUS
290
     0
370
    -3
390
576
347
622
  0
ENDTAB
  0
TABLE
  2
STYLE
  5
3
330
0
100
AcDbSymbolTable
 70
     9
  0
STYLE
  5
F
330
3
100
AcDbSymbolTableRecord
100
AcDbTextStyleTableRecord
  2
STANDARD
 70
     0
 40
0.0
 41
1.0
 50
0.0
 71
     0
 42
0.07
  3
ROMANS
  4

  0
STYLE
  5
21
330
3
100
AcDbSymbolTableRecord
100
AcDbTextStyleTableRecord
  2
ROMANT
 70
     0
 40
0.0
 41
1.0
 50
0.0
 71
     0
 42
0.06
  3
romant
  4

  0
STYLE
  5
22
330
3
100
AcDbSymbolTableRecord
100
AcDbTextStyleTableRecord
  2
B
 70
     0
 40
0.0
 41
1.0
 50
0.0
 71
     0
 42
0.07
  3
romand
  4

  0
STYLE
  5
57F
330
3
100
AcDbSymbolTableRecord
100
AcDbTextStyleTableRecord
  2
arial1
 70
     0
 40
0.0
 41
1.0
 50
0.0
 71
     0
 42
0.07
  3
ARIAL.TTF
  4

1001
ACAD
1000
Arial
1071
       34
  0
STYLE
  5
5F6
330
3
100
AcDbSymbolTableRecord
100
AcDbTextStyleTableRecord
  2
ARIALB
 70
     0
 40
0.0
 41
1.0
 50
0.0
 71
     0
 42
0.07
  3
ARIBLK.TTF
  4

1001
ACAD
1000
Arial Black
1071
       34
  0
STYLE
  5
60D
330
3
100
AcDbSymbolTableRecord
100
AcDbTextStyleTableRecord
  2
ARIAL2
 70
     0
 40
0.0
 41
1.0
 50
0.0
 71
     0
 42
0.07
  3
ARIALBD.TTF
  4

1001
ACAD
1000
Arial
1071
 33554466
  0
STYLE
  5
666
330
3
100
AcDbSymbolTableRecord
100
AcDbTextStyleTableRecord
  2
S
 70
     0
 40
0.0
 41
1.0
 50
0.0
 71
     0
 42
0.07
  3
ROMANS
  4

  0
ENDTAB
  0
TABLE
  2
VIEW
  5
6
330
0
100
AcDbSymbolTable
 70
     1
  0
ENDTAB
  0
TABLE
  2
UCS
  5
7
330
0
100
AcDbSymbolTable
 70
     0
  0
ENDTAB
  0
TABLE
  2
APPID
  5
9
330
0
100
AcDbSymbolTable
 70
     4
  0
APPID
  5
10
330
9
100
AcDbSymbolTableRecord
100
AcDbRegAppTableRecord
  2
ACAD
 70
     0
  0
APPID
  5
664
330
9
100
AcDbSymbolTableRecord
100
AcDbRegAppTableRecord
  2
ACAD_EXEMPT_FROM_CAD_STANDARDS
 70
     0
  0
APPID
  5
667
330
9
100
AcDbSymbolTableRecord
100
AcDbRegAppTableRecord
  2
ACAD_PSEXT
 70
     0
  0
APPID
  5
70D
330
9
100
AcDbSymbolTableRecord
100
AcDbRegAppTableRecord
  2
ACAD_MLEADERVER
 70
     0
  0
ENDTAB
  0
TABLE
  2
DIMSTYLE
  5
A
330
0
100
AcDbSymbolTable
 70
     3
100
AcDbDimStyleTable
 71
     1
340
565
  0
DIMSTYLE
105
565
330
A
100
AcDbSymbolTableRecord
100
AcDbDimStyleTableRecord
  2
STANDARD
 70
     0
340
F
  0
ENDTAB
  0
TABLE
  2
BLOCK_RECORD
  5
1
330
0
100
AcDbSymbolTable
 70
     6
  0
BLOCK_RECORD
  5
17
330
1
100
AcDbSymbolTableRecord
100
AcDbBlockTableRecord
  2
*MODEL_SPACE
340
579
 70
     0
280
     1
281
     0
  0
BLOCK_RECORD
  5
14
330
1
100
AcDbSymbolTableRecord
100
AcDbBlockTableRecord
  2
*PAPER_SPACE
340
57A
 70
     0
280
     1
281
     0
  0
BLOCK_RECORD
  5
1C
330
1
100
AcDbSymbolTableRecord
100
AcDbBlockTableRecord
  2
RECT
340
0
102
{BLKREFS
331
3A1
331
3A2
331
3D9
331
3DA
331
459
331
45A
331
45B
331
45C
331
480
331
481
331
482
331
486
331
487
331
551
102
}
 70
     0
280
     1
281
     0
  0
BLOCK_RECORD
  5
20
330
1
100
AcDbSymbolTableRecord
100
AcDbBlockTableRecord
  2
12393
340
0
102
{BLKREFS
331
564
102
}
 70
     0
280
     1
281
     0
  0
BLOCK_RECORD
  5
56D
330
1
100
AcDbSymbolTableRecord
100
AcDbBlockTableRecord
  2
A$C0C8E303C
340
0
 70
     0
280
     1
281
     0
  0
ENDTAB
  0
ENDSEC
  0
SECTION
  2
BLOCKS
  0
BLOCK
  5
32
330
17
100
AcDbEntity
  8
0
100
AcDbBlockBegin
  2
*MODEL_SPACE
 70
     0
 10
0.0
 20
0.0
 30
0.0
  3
*MODEL_SPACE
  1

  0
ENDBLK
  5
33
330
17
100
AcDbEntity
  8
0
100
AcDbBlockEnd
  0
BLOCK
  5
30
330
14
100
AcDbEntity
 67
     1
  8
0
100
AcDbBlockBegin
  2
*PAPER_SPACE
 70
     0
 10
0.0
 20
0.0
 30
0.0
  3
*PAPER_SPACE
  1

  0
ENDBLK
  5
31
330
14
100
AcDbEntity
 67
     1
  8
0
100
AcDbBlockEnd
  0
BLOCK
  5
36
330
1C
100
AcDbEntity
  8
0
100
AcDbBlockBegin
  2
RECT
 70
     0
 10
0.0
 20
0.0
 30
0.0
  3
RECT
  1

  0
LWPOLYLINE
  5
37
330
1C
100
AcDbEntity
  8
0
100
AcDbPolyline
 90
        4
 70
     1
 43
0.0
 10
0.0
 20
0.0
 10
1.0
 20
0.0
 10
1.0
 20
1.0
 10
0.0
 20
1.0
  0
ENDBLK
  5
3D
330
1C
100
AcDbEntity
  8
0
100
AcDbBlockEnd
  0
BLOCK
  5
1D7
330
20
100
AcDbEntity
  8
0
100
AcDbBlockBegin
  2
12393
 70
     0
 10
0.0
 20
0.0
 30
0.0
  3
12393
  1

  0
LWPOLYLINE
  5
1D8
330
20
100
AcDbEntity
  8
PAPER
100
AcDbPolyline
 90
        6
 70
     1
 43
0.0
 10
0.4306642771816369
 20
0.4928167194996974
 10
0.1694889343491986
 20
0.4928167194996974
 10
0.1694889343491986
 20
0.406996324339807
 42
0.4142135623730912
 10
0.239367970629761
 20
0.3371172880592399
 10
0.5005433134622073
 20
0.3371172880592399
 10
0.5005433134622073
 20
0.4229376832191305
 42
0.4142135623730912
  0
TEXT
  5
1E0
330
20
100
AcDbEntity
  8
PAPER
100
AcDbText
 10
0.1968389652516827
 20
0.0653685483710036
 30
0.0
 40
0.08
  1
COMPANY
  7
B
100
AcDbText
  0
TEXT
  5
1E1
330
20
100
AcDbEntity
  8
PAPER
100
AcDbText
 10
0.1994274219848929
 20
0.1867646562232728
 30
0.0
 40
0.08
  1
BUILDING PRODUCTS
  7
B
100
AcDbText
  0
LWPOLYLINE
  5
1E2
330
20
100
AcDbEntity
  8
PAPER
100
AcDbPolyline
 90
       18
 70
     1
 43
0.0
 10
0.6765762518365296
 20
0.604111179110729
 10
0.6765762518365296
 20
0.5323750641537762
 10
0.7403416873538186
 20
0.5323750641537762
 10
0.7403416873538186
 20
0.6120818585503898
 42
0.4142135623730951
 10
0.7004882901555131
 20
0.6519352557486967
 10
0.6207814957588976
 20
0.651935255748697
 42
0.4142135623730951
 10
0.5809280985605884
 20
0.6120818585503898
 10
0.5809280985605884
 20
0.4128148725588553
 42
0.4142135623730953
 10
0.6207814957588976
 20
0.3729614753605477
 10
0.7004882901555131
 20
0.3729614753605477
 42
0.4142135623730951
 10
0.7403416873538186
 20
0.4128148725588553
 10
0.7403416873538186
 20
0.4925216669554695
 10
0.6765762518365296
 20
0.4925216669554695
 10
0.6765762518365296
 20
0.4207855519985151
 42
-0.4142135623730969
 10
0.6606348929572074
 20
0.4048441931191929
 42
-0.4142135623730943
 10
0.6446935340778858
 20
0.4207855519985151
 10
0.6446935340778773
 20
0.604111179110729
 42
-0.4142135623730951
 10
0.6606348929572074
 20
0.6200525379900517
 42
-0.4142135623730969
  0
LINE
  5
1F6
330
20
100
AcDbEntity
  8
PAPER
100
AcDbLine
 10
0.179962485820331
 20
0.5476544388800927
 30
0.0
 11
0.4540157620275672
 21
0.5476544388800927
 31
0.0
  0
LINE
  5
1F7
330
20
100
AcDbEntity
  8
PAPER
100
AcDbLine
 10
0.179962485820331
 20
0.5534249114501176
 30
0.0
 11
0.4644636791176112
 21
0.5534249114501176
 31
0.0
  0
LINE
  5
1F8
330
20
100
AcDbEntity
  8
PAPER
100
AcDbLine
 10
0.2082694119570478
 20
0.6688343628506253
 30
0.0
 11
0.4900697619910666
 21
0.6688343628506253
 31
0.0
  0
LINE
  5
1F9
330
20
100
AcDbEntity
  8
PAPER
100
AcDbLine
 10
0.2004068563776899
 20
0.6630638902805995
 30
0.0
 11
0.4900697619910666
 21
0.6630638902805995
 31
0.0
  0
LINE
  5
1FA
330
20
100
AcDbEntity
  8
PAPER
100
AcDbLine
 10
0.1946217999705963
 20
0.6572934177105746
 30
0.0
 11
0.4900697619910666
 21
0.6572934177105746
 31
0.0
  0
LINE
  5
1FB
330
20
100
AcDbEntity
  8
PAPER
100
AcDbLine
 10
0.1901757512634294
 20
0.6515229451405487
 30
0.0
 11
0.4900697619910679
 21
0.6515229451405487
 31
0.0
  0
LINE
  5
1FC
330
20
100
AcDbEntity
  8
PAPER
100
AcDbLine
 10
0.1867283240091624
 20
0.6457524725705238
 30
0.0
 11
0.4900697619910666
 21
0.6457524725705238
 31
0.0
  0
LINE
  5
1FD
330
20
100
AcDbEntity
  8
PAPER
100
AcDbLine
 10
0.1840923553989955
 20
0.639982000000498
 30
0.0
 11
0.4900697619910679
 21
0.639982000000498
 31
0.0
  0
LINE
  5
1FE
330
20
100
AcDbEntity
  8
PAPER
100
AcDbLine
 10
0.1821555753418569
 20
0.634211527430473
 30
0.0
 11
0.4900697619910679
 21
0.634211527430473
 31
0.0
  0
LINE
  5
1FF
330
20
100
AcDbEntity
  8
PAPER
100
AcDbLine
 10
0.1808485208488484
 20
0.6284410548604472
 30
0.0
 11
0.4900697619910666
 21
0.6284410548604481
 31
0.0
  0
LINE
  5
200
330
20
100
AcDbEntity
  8
PAPER
100
AcDbLine
 10
0.1801294939159545
 20
0.6226705822904222
 30
0.0
 11
0.4900697619910666
 21
0.6226705822904222
 31
0.0
  0
LINE
  5
201
330
20
100
AcDbEntity
  8
PAPER
100
AcDbLine
 10
0.179962485820331
 20
0.6169001097203973
 30
0.0
 11
0.4900697619910666
 21
0.6169001097203973
 31
0.0
  0
LINE
  5
202
330
20
100
AcDbEntity
  8
PAPER
100
AcDbLine
 10
0.179962485820331
 20
0.6111296371503715
 30
0.0
 11
0.4900697619910666
 21
0.6111296371503715
 31
0.0
  0
LINE
  5
203
330
20
100
AcDbEntity
  8
PAPER
100
AcDbLine
 10
0.179962485820331
 20
0.6053591645803456
 30
0.0
 11
0.4900697619910666
 21
0.6053591645803465
 31
0.0
  0
LINE
  5
204
330
20
100
AcDbEntity
  8
PAPER
100
AcDbLine
 10
0.179962485820331
 20
0.5995886920103207
 30
0.0
 11
0.4900088634547457
 21
0.5995886920103207
 31
0.0
  0
LINE
  5
205
330
20
100
AcDbEntity
  8
PAPER
100
AcDbLine
 10
0.179962485820331
 20
0.5938182194402958
 30
0.0
 11
0.489464326944437
 21
0.5938182194402958
 31
0.0
  0
LINE
  5
206
330
20
100
AcDbEntity
  8
PAPER
100
AcDbLine
 10
0.179962485820331
 20
0.5880477468702699
 30
0.0
 11
0.4883402260418935
 21
0.5880477468702699
 31
0.0
  0
LINE
  5
207
330
20
100
AcDbEntity
  8
PAPER
100
AcDbLine
 10
0.179962485820331
 20
0.582277274300245
 30
0.0
 11
0.4866016313770596
 21
0.582277274300245
 31
0.0
  0
LINE
  5
208
330
20
100
AcDbEntity
  8
PAPER
100
AcDbLine
 10
0.179962485820331
 20
0.5765068017302191
 30
0.0
 11
0.4841886959498878
 21
0.57650680173022
 31
0.0
  0
LINE
  5
209
330
20
100
AcDbEntity
  8
PAPER
100
AcDbLine
 10
0.179962485820331
 20
0.5707363291601942
 30
0.0
 11
0.4810045444357528
 21
0.5707363291601942
 31
0.0
  0
LINE
  5
20A
330
20
100
AcDbEntity
  8
PAPER
100
AcDbLine
 10
0.179962485820331
 20
0.5649658565901684
 30
0.0
 11
0.476890080609836
 21
0.5649658565901684
 31
0.0
  0
LINE
  5
20B
330
20
100
AcDbEntity
  8
PAPER
100
AcDbLine
 10
0.179962485820331
 20
0.5591953840201434
 30
0.0
 11
0.4715655068768332
 21
0.5591953840201434
 31
0.0
  0
LINE
  5
20C
330
20
100
AcDbEntity
  8
PAPER
100
AcDbLine
 10
0.1799624858203297
 20
0.4797017933670292
 30
0.0
 11
0.4481813381384436
 21
0.4797017933670292
 31
0.0
  0
LINE
  5
20D
330
20
100
AcDbEntity
  8
PAPER
100
AcDbLine
 10
0.1799624858203297
 20
0.4739313207970051
 30
0.0
 11
0.4611382095177341
 21
0.4739313207970043
 31
0.0
  0
LINE
  5
20E
330
20
100
AcDbEntity
  8
PAPER
100
AcDbLine
 10
0.1799624858203297
 20
0.4681608482269793
 30
0.0
 11
0.4691854008946813
 21
0.4681608482269793
 31
0.0
  0
LINE
  5
20F
330
20
100
AcDbEntity
  8
PAPER
100
AcDbLine
 10
0.1799624858203297
 20
0.4623903756569535
 30
0.0
 11
0.4750770758420224
 21
0.4623903756569535
 31
0.0
  0
LINE
  5
210
330
20
100
AcDbEntity
  8
PAPER
100
AcDbLine
 10
0.1799624858203297
 20
0.4566199030869285
 30
0.0
 11
0.479598106893014
 21
0.4566199030869285
 31
0.0
  0
LINE
  5
211
330
20
100
AcDbEntity
  8
PAPER
100
AcDbLine
 10
0.1799624858203297
 20
0.4508494305169027
 30
0.0
 11
0.4831042046055581
 21
0.4508494305169027
 31
0.0
  0
LINE
  5
212
330
20
100
AcDbEntity
  8
PAPER
100
AcDbLine
 10
0.1799624858203297
 20
0.4450789579468778
 30
0.0
 11
0.485789367466116
 21
0.4450789579468778
 31
0.0
  0
LINE
  5
213
330
20
100
AcDbEntity
  8
PAPER
100
AcDbLine
 10
0.1799624858203297
 20
0.4393084853768519
 30
0.0
 11
0.4877695174154331
 21
0.4393084853768519
 31
0.0
  0
LINE
  5
214
330
20
100
AcDbEntity
  8
PAPER
100
AcDbLine
 10
0.1799624858203297
 20
0.433538012806827
 30
0.0
 11
0.4891163484715177
 21
0.433538012806827
 31
0.0
  0
LINE
  5
215
330
20
100
AcDbEntity
  8
PAPER
100
AcDbLine
 10
0.1799624858203297
 20
0.4277675402368021
 30
0.0
 11
0.4898730949931477
 21
0.4277675402368021
 31
0.0
  0
LINE
  5
216
330
20
100
AcDbEntity
  8
PAPER
100
AcDbLine
 10
0.1799624858203297
 20
0.4219970676667762
 30
0.0
 11
0.4900697619910666
 21
0.4219970676667762
 31
0.0
  0
LINE
  5
217
330
20
100
AcDbEntity
  8
PAPER
100
AcDbLine
 10
0.1799624858203297
 20
0.4162265950967513
 30
0.0
 11
0.4900697619910666
 21
0.4162265950967513
 31
0.0
  0
LINE
  5
218
330
20
100
AcDbEntity
  8
PAPER
100
AcDbLine
 10
0.1799624858203297
 20
0.4104561225267254
 30
0.0
 11
0.4900697619910666
 21
0.4104561225267254
 31
0.0
  0
LINE
  5
219
330
20
100
AcDbEntity
  8
PAPER
100
AcDbLine
 10
0.1800074415777251
 20
0.4046856499567005
 30
0.0
 11
0.4900697619910661
 21
0.4046856499567005
 31
0.0
  0
LINE
  5
21A
330
20
100
AcDbEntity
  8
PAPER
100
AcDbLine
 10
0.1805147065795245
 20
0.3989151773866746
 30
0.0
 11
0.4900697619910661
 21
0.3989151773866746
 31
0.0
  0
LINE
  5
21B
330
20
100
AcDbEntity
  8
PAPER
100
AcDbLine
 10
0.1815999495278901
 20
0.3931447048166496
 30
0.0
 11
0.4900697619910666
 21
0.3931447048166496
 31
0.0
  0
LINE
  5
21C
330
20
100
AcDbEntity
  8
PAPER
100
AcDbLine
 10
0.1832967201770794
 20
0.3873742322466238
 30
0.0
 11
0.4900697619910666
 21
0.3873742322466238
 31
0.0
  0
LINE
  5
21D
330
20
100
AcDbEntity
  8
PAPER
100
AcDbLine
 10
0.1856629495863802
 20
0.3816037596765989
 30
0.0
 11
0.4900697619910666
 21
0.3816037596765989
 31
0.0
  0
LINE
  5
21E
330
20
100
AcDbEntity
  8
PAPER
100
AcDbLine
 10
0.1887925147658442
 20
0.375833287106573
 30
0.0
 11
0.4900697619910679
 21
0.375833287106573
 31
0.0
  0
LINE
  5
21F
330
20
100
AcDbEntity
  8
PAPER
100
AcDbLine
 10
0.1928391894394334
 20
0.3700628145365481
 30
0.0
 11
0.4900697619910666
 21
0.3700628145365481
 31
0.0
  0
LINE
  5
220
330
20
100
AcDbEntity
  8
PAPER
100
AcDbLine
 10
0.1980717054850516
 20
0.3642923419665223
 30
0.0
 11
0.4900697619910661
 21
0.3642923419665223
 31
0.0
  0
LINE
  5
221
330
20
100
AcDbEntity
  8
PAPER
100
AcDbLine
 10
0.2050279234051501
 20
0.3585218693964973
 30
0.0
 11
0.4900697619910661
 21
0.3585218693964973
 31
0.0
  0
LWPOLYLINE
  5
222
330
20
100
AcDbEntity
  8
PAPER
100
AcDbPolyline
 90
        6
 70
     1
 43
0.0
 10
0.5005433134622073
 20
0.602277875067701
 42
-0.4142135623730912
 10
0.4306642771816369
 20
0.5323988387871342
 10
0.1694889343491986
 20
0.5323988387871348
 10
0.1694889343491986
 20
0.6182192339470243
 42
-0.4142135623730912
 10
0.239367970629761
 20
0.6880982702275914
 10
0.5005433134622073
 20
0.6880982702275917
  0
LWPOLYLINE
  5
22A
330
20
100
AcDbEntity
  8
PAPER
100
AcDbPolyline
 90
        6
 70
     1
 43
0.0
 10
0.4306642771816369
 20
0.4823431680285597
 10
0.1799624858203308
 20
0.4823431680285597
 10
0.1799624858203308
 20
0.406996324339807
 42
0.4142135623730903
 10
0.239367970629761
 20
0.3475908395303771
 10
0.4900697619910668
 20
0.3475908395303771
 10
0.4900697619910668
 20
0.4229376832191305
 42
0.4142135623730933
  0
LWPOLYLINE
  5
232
330
20
100
AcDbEntity
  8
PAPER
100
AcDbPolyline
 90
        6
 70
     1
 43
0.0
 10
0.4900697619910668
 20
0.602277875067701
 42
-0.4142135623730941
 10
0.4306642771816369
 20
0.5428723902582718
 10
0.1799624858203308
 20
0.5428723902582722
 10
0.1799624858203308
 20
0.6182192339470243
 42
-0.4142135623730911
 10
0.239367970629761
 20
0.6776247187564537
 10
0.4900697619910668
 20
0.677624718756454
  0
LINE
  5
23A
330
20
100
AcDbEntity
  8
PAPER
100
AcDbLine
 10
0.2206683564119276
 20
0.6746048354206503
 30
0.0
 11
0.4900697619910666
 21
0.6746048354206503
 31
0.0
  0
LINE
  5
23B
330
20
100
AcDbEntity
  8
PAPER
100
AcDbLine
 10
0.2151502196087309
 20
0.3527513968264715
 30
0.0
 11
0.4900697619910666
 21
0.3527513968264715
 31
0.0
  0
LINE
  5
23C
330
20
100
AcDbEntity
  8
PAPER
100
AcDbLine
 10
0.6993060123198396
 20
0.5323750641537764
 30
0.0
 11
0.6993060123198396
 21
0.6519352557486967
 31
0.0
  0
LINE
  5
23D
330
20
100
AcDbEntity
  8
PAPER
100
AcDbLine
 10
0.6819945946097639
 20
0.5323750641537764
 30
0.0
 11
0.6819945946097639
 21
0.6519352557486967
 31
0.0
  0
LINE
  5
23E
330
20
100
AcDbEntity
  8
PAPER
100
AcDbLine
 10
0.6935355397498143
 20
0.5323750641537764
 30
0.0
 11
0.6935355397498143
 21
0.6519352557486967
 31
0.0
  0
LINE
  5
23F
330
20
100
AcDbEntity
  8
PAPER
100
AcDbLine
 10
0.687765067179787
 20
0.5323750641537764
 30
0.0
 11
0.6877650671797884
 21
0.6519352557486967
 31
0.0
  0
LINE
  5
240
330
20
100
AcDbEntity
  8
PAPER
100
AcDbLine
 10
0.6762241220397389
 20
0.6074432744763766
 30
0.0
 11
0.6762241220397389
 21
0.6519352557486967
 31
0.0
  0
LINE
  5
241
330
20
100
AcDbEntity
  8
PAPER
100
AcDbLine
 10
0.6704536494697131
 20
0.6166697993956756
 30
0.0
 11
0.6704536494697131
 21
0.6519352557486967
 31
0.0
  0
LINE
  5
242
330
20
100
AcDbEntity
  8
PAPER
100
AcDbLine
 10
0.6646831768996873
 20
0.6195299443023499
 30
0.0
 11
0.6646831768996873
 21
0.6519352557486967
 31
0.0
  0
LINE
  5
243
330
20
100
AcDbEntity
  8
PAPER
100
AcDbLine
 10
0.6473717591896115
 20
0.6129551717373801
 30
0.0
 11
0.6473717591896115
 21
0.6519352557486967
 31
0.0
  0
LINE
  5
244
330
20
100
AcDbEntity
  8
PAPER
100
AcDbLine
 10
0.6531422317596383
 20
0.6181819627099408
 30
0.0
 11
0.6531422317596379
 21
0.6519352557486967
 31
0.0
  0
LINE
  5
245
330
20
100
AcDbEntity
  8
PAPER
100
AcDbLine
 10
0.6589127043296611
 20
0.6199592385896827
 30
0.0
 11
0.6589127043296611
 21
0.6519352557486967
 31
0.0
  0
LINE
  5
246
330
20
100
AcDbEntity
  8
PAPER
100
AcDbLine
 10
0.6993060123198396
 20
0.3729614753605472
 30
0.0
 11
0.6993060123198396
 21
0.4925216669554694
 31
0.0
  0
LINE
  5
247
330
20
100
AcDbEntity
  8
PAPER
100
AcDbLine
 10
0.6935355397498155
 20
0.3729614753605472
 30
0.0
 11
0.6935355397498143
 21
0.4925216669554694
 31
0.0
  0
LINE
  5
248
330
20
100
AcDbEntity
  8
PAPER
100
AcDbLine
 10
0.687765067179787
 20
0.3729614753605472
 30
0.0
 11
0.687765067179787
 21
0.4925216669554694
 31
0.0
  0
LINE
  5
249
330
20
100
AcDbEntity
  8
PAPER
100
AcDbLine
 10
0.6819945946097639
 20
0.3729614753605472
 30
0.0
 11
0.6819945946097639
 21
0.4925216669554694
 31
0.0
  0
LINE
  5
24A
330
20
100
AcDbEntity
  8
PAPER
100
AcDbLine
 10
0.6762241220397398
 20
0.3729614753605472
 30
0.0
 11
0.6762241220397398
 21
0.4174534566320139
 31
0.0
  0
LINE
  5
24B
330
20
100
AcDbEntity
  8
PAPER
100
AcDbLine
 10
0.6704536494697131
 20
0.3729614753605472
 30
0.0
 11
0.6704536494697131
 21
0.4082269317133357
 31
0.0
  0
LINE
  5
24C
330
20
100
AcDbEntity
  8
PAPER
100
AcDbLine
 10
0.6646831768996873
 20
0.3729614753605472
 30
0.0
 11
0.6646831768996873
 21
0.4053667868067049
 31
0.0
  0
LINE
  5
24D
330
20
100
AcDbEntity
  8
PAPER
100
AcDbLine
 10
0.658912704329662
 20
0.3729614753605472
 30
0.0
 11
0.658912704329662
 21
0.4049374925195134
 31
0.0
  0
LINE
  5
24E
330
20
100
AcDbEntity
  8
PAPER
100
AcDbLine
 10
0.6531422317596379
 20
0.3729614753605472
 30
0.0
 11
0.6531422317596383
 21
0.4067147683992561
 31
0.0
  0
LINE
  5
24F
330
20
100
AcDbEntity
  8
PAPER
100
AcDbLine
 10
0.6473717591896115
 20
0.3729614753605472
 30
0.0
 11
0.6473717591896115
 21
0.4119415593717804
 31
0.0
  0
LINE
  5
250
330
20
100
AcDbEntity
  8
PAPER
100
AcDbLine
 10
0.6416012866195871
 20
0.3729614753605472
 30
0.0
 11
0.6416012866195857
 21
0.6519352557486967
 31
0.0
  0
LINE
  5
251
330
20
100
AcDbEntity
  8
PAPER
100
AcDbLine
 10
0.6358308140495599
 20
0.3729614753605472
 30
0.0
 11
0.6358308140495604
 21
0.6519352557486967
 31
0.0
  0
LINE
  5
252
330
20
100
AcDbEntity
  8
PAPER
100
AcDbLine
 10
0.6300603414795355
 20
0.3729614753605472
 30
0.0
 11
0.6300603414795355
 21
0.6519352557486967
 31
0.0
  0
LINE
  5
253
330
20
100
AcDbEntity
  8
PAPER
100
AcDbLine
 10
0.6242898689095091
 20
0.3729614753605472
 30
0.0
 11
0.6242898689095091
 21
0.6519352557486967
 31
0.0
  0
LINE
  5
254
330
20
100
AcDbEntity
  8
PAPER
100
AcDbLine
 10
0.6185193963394847
 20
0.3730257261183592
 30
0.0
 11
0.6185193963394847
 21
0.6518710049910207
 31
0.0
  0
LINE
  5
255
330
20
100
AcDbEntity
  8
PAPER
100
AcDbLine
 10
0.6127489237694597
 20
0.3737793623728576
 30
0.0
 11
0.6127489237694597
 21
0.6511173687364645
 31
0.0
  0
LINE
  5
256
330
20
100
AcDbEntity
  8
PAPER
100
AcDbLine
 10
0.6069784511994339
 20
0.3754281205050043
 30
0.0
 11
0.6069784511994339
 21
0.6494686106042734
 31
0.0
  0
LINE
  5
257
330
20
100
AcDbEntity
  8
PAPER
100
AcDbLine
 10
0.6012079786294072
 20
0.3780993040710958
 30
0.0
 11
0.6012079786294081
 21
0.6467974270381588
 31
0.0
  0
LINE
  5
258
330
20
100
AcDbEntity
  8
PAPER
100
AcDbLine
 10
0.5954375060593826
 20
0.3820581585868197
 30
0.0
 11
0.5954375060593826
 21
0.6428385725224802
 31
0.0
  0
LINE
  5
259
330
20
100
AcDbEntity
  8
PAPER
100
AcDbLine
 10
0.5896670334893591
 20
0.3879113887478656
 30
0.0
 11
0.5896670334893591
 21
0.6369853423614174
 31
0.0
  0
LINE
  5
25A
330
20
100
AcDbEntity
  8
PAPER
100
AcDbLine
 10
0.5838965609193315
 20
0.3977219984081894
 30
0.0
 11
0.5838965609193327
 21
0.6271747327012845
 31
0.0
  0
LWPOLYLINE
  5
25B
330
20
100
AcDbEntity
  8
PAPER
100
AcDbPolyline
 90
        5
 70
     0
 43
0.0
 10
0.9134655158037315
 20
0.5048096616906559
 42
-1.00459822107278
 10
0.9453475625419073
 20
0.5049559268813409
 10
0.9453475625419073
 20
0.4207855519985151
 42
-0.9999999999999996
 10
0.9134648447832638
 20
0.4207855519985151
 10
0.9134648447832638
 20
0.5049559268813409
  0
LWPOLYLINE
  5
262
330
20
100
AcDbEntity
  8
PAPER
100
AcDbPolyline
 90
        8
 70
     1
 43
0.0
 10
1.009112998059204
 20
0.5129266063210024
 10
1.009112998059204
 20
0.4128148725588541
 42
-0.4142135623730951
 10
0.9692596008608955
 20
0.3729614753605477
 10
0.8895528064642801
 20
0.3729614753605477
 42
-0.4142135623730951
 10
0.8496994092659749
 20
0.4128148725588544
 10
0.8496994092659699
 20
0.5129266063210024
 42
-0.4142135623730951
 10
0.8895528064642801
 20
0.5527800035193087
 10
0.9692596008608955
 20
0.5527800035193087
 42
-0.4142135623730951
  0
LINE
  5
26C
330
20
100
AcDbEntity
  8
PAPER
100
AcDbLine
 10
0.7396993203100186
 20
0.5323750641537764
 30
0.0
 11
0.7396993203100183
 21
0.6192084553866451
 31
0.0
  0
LINE
  5
26D
330
20
100
AcDbEntity
  8
PAPER
100
AcDbLine
 10
0.7339288477399933
 20
0.5323750641537764
 30
0.0
 11
0.7339288477399919
 21
0.6337618580126446
 31
0.0
  0
LINE
  5
26E
330
20
100
AcDbEntity
  8
PAPER
100
AcDbLine
 10
0.7281583751699661
 20
0.5323750641537764
 30
0.0
 11
0.7281583751699661
 21
0.6407639028210291
 31
0.0
  0
LINE
  5
26F
330
20
100
AcDbEntity
  8
PAPER
100
AcDbLine
 10
0.7108469574598882
 20
0.5323750641537764
 30
0.0
 11
0.7108469574598909
 21
0.6505655080645008
 31
0.0
  0
LINE
  5
270
330
20
100
AcDbEntity
  8
PAPER
100
AcDbLine
 10
0.7223879025999402
 20
0.5323750641537764
 30
0.0
 11
0.7223879025999408
 21
0.6453790092247925
 31
0.0
  0
LINE
  5
271
330
20
100
AcDbEntity
  8
PAPER
100
AcDbLine
 10
0.7166174300299153
 20
0.5323750641537764
 30
0.0
 11
0.7166174300299153
 21
0.6485255701500135
 31
0.0
  0
LINE
  5
272
330
20
100
AcDbEntity
  8
PAPER
100
AcDbLine
 10
0.7050764848898645
 20
0.5323750641537764
 30
0.0
 11
0.7050764848898645
 21
0.6516702626268386
 31
0.0
  0
LINE
  5
273
330
20
100
AcDbEntity
  8
PAPER
100
AcDbLine
 10
0.8147154637203451
 20
0.3729614753605481
 30
0.0
 11
0.814715463720346
 21
0.6522540829262836
 31
0.0
  0
LINE
  5
274
330
20
100
AcDbEntity
  8
PAPER
100
AcDbLine
 10
0.8089449911503201
 20
0.3729614753605481
 30
0.0
 11
0.8089449911503201
 21
0.6522540829262836
 31
0.0
  0
LINE
  5
275
330
20
100
AcDbEntity
  8
PAPER
100
AcDbLine
 10
0.803174518580297
 20
0.3729614753605481
 30
0.0
 11
0.803174518580297
 21
0.6522540829262836
 31
0.0
  0
LINE
  5
276
330
20
100
AcDbEntity
  8
PAPER
100
AcDbLine
 10
0.7974040460102698
 20
0.3729614753605481
 30
0.0
 11
0.7974040460102712
 21
0.6522540829262836
 31
0.0
  0
LINE
  5
277
330
20
100
AcDbEntity
  8
PAPER
100
AcDbLine
 10
0.7916335734402445
 20
0.3729614753605481
 30
0.0
 11
0.7916335734402454
 21
0.6522540829262836
 31
0.0
  0
LINE
  5
278
330
20
100
AcDbEntity
  8
PAPER
100
AcDbLine
 10
0.7858631008702199
 20
0.3729614753605481
 30
0.0
 11
0.7858631008702199
 21
0.6522540829262836
 31
0.0
  0
LINE
  5
279
330
20
100
AcDbEntity
  8
PAPER
100
AcDbLine
 10
0.7800926283001946
 20
0.3729614753605481
 30
0.0
 11
0.7800926283001946
 21
0.6522540829262836
 31
0.0
  0
LINE
  5
27A
330
20
100
AcDbEntity
  8
PAPER
100
AcDbLine
 10
0.774322155730167
 20
0.3729614753605481
 30
0.0
 11
0.7743221557301683
 21
0.6522540829262836
 31
0.0
  0
LINE
  5
27B
330
20
100
AcDbEntity
  8
PAPER
100
AcDbLine
 10
0.7396993203100183
 20
0.4056882757221059
 30
0.0
 11
0.7396993203100186
 21
0.4925216669554694
 31
0.0
  0
LINE
  5
27C
330
20
100
AcDbEntity
  8
PAPER
100
AcDbLine
 10
0.7339288477399919
 20
0.3911348730964466
 30
0.0
 11
0.7339288477399933
 21
0.4925216669554694
 31
0.0
  0
LINE
  5
27D
330
20
100
AcDbEntity
  8
PAPER
100
AcDbLine
 10
0.7281583751699675
 20
0.3841328282881988
 30
0.0
 11
0.7281583751699675
 21
0.4925216669554694
 31
0.0
  0
LINE
  5
27E
330
20
100
AcDbEntity
  8
PAPER
100
AcDbLine
 10
0.7223879025999408
 20
0.3795177218844346
 30
0.0
 11
0.7223879025999402
 21
0.4925216669554694
 31
0.0
  0
LINE
  5
27F
330
20
100
AcDbEntity
  8
PAPER
100
AcDbLine
 10
0.7166174300299153
 20
0.3763711609591451
 30
0.0
 11
0.7166174300299153
 21
0.4925216669554694
 31
0.0
  0
LINE
  5
280
330
20
100
AcDbEntity
  8
PAPER
100
AcDbLine
 10
0.7108469574598895
 20
0.3743312230446996
 30
0.0
 11
0.7108469574598882
 21
0.4925216669554694
 31
0.0
  0
LINE
  5
281
330
20
100
AcDbEntity
  8
PAPER
100
AcDbLine
 10
0.7050764848898645
 20
0.3732264684822713
 30
0.0
 11
0.7050764848898645
 21
0.4925216669554694
 31
0.0
  0
LWPOLYLINE
  5
282
330
20
100
AcDbEntity
  8
PAPER
100
AcDbPolyline
 90
        4
 70
     1
 43
0.0
 10
0.7703114420469431
 20
0.6522540829262833
 10
0.820048481750431
 20
0.6522540829262833
 10
0.820048481750431
 20
0.3729614753605477
 10
0.7703114420469431
 20
0.3729614753605477
  0
LINE
  5
288
330
20
100
AcDbEntity
  8
PAPER
100
AcDbLine
 10
0.9416658602609027
 20
0.5151455168146607
 30
0.0
 11
0.9416658602609027
 21
0.5527800035193094
 31
0.0
  0
LINE
  5
289
330
20
100
AcDbEntity
  8
PAPER
100
AcDbLine
 10
0.9358953876908786
 20
0.5195167446319065
 30
0.0
 11
0.9358953876908781
 21
0.5527800035193094
 31
0.0
  0
LINE
  5
28A
330
20
100
AcDbEntity
  8
PAPER
100
AcDbLine
 10
0.9185839699808029
 20
0.5166608908306677
 30
0.0
 11
0.9185839699808029
 21
0.5527800035193094
 31
0.0
  0
LINE
  5
28B
330
20
100
AcDbEntity
  8
PAPER
100
AcDbLine
 10
0.9243544425508279
 20
0.5200756700202874
 30
0.0
 11
0.9243544425508279
 21
0.5527800035193094
 31
0.0
  0
LINE
  5
28C
330
20
100
AcDbEntity
  8
PAPER
100
AcDbLine
 10
0.9301249151208546
 20
0.5208810760724088
 30
0.0
 11
0.9301249151208532
 21
0.5527800035193094
 31
0.0
  0
LINE
  5
28D
330
20
100
AcDbEntity
  8
PAPER
100
AcDbLine
 10
0.9416658602609027
 20
0.3729614753605472
 30
0.0
 11
0.9416658602609027
 21
0.4105959620656775
 31
0.0
  0
LINE
  5
28E
330
20
100
AcDbEntity
  8
PAPER
100
AcDbLine
 10
0.9358953876908786
 20
0.3729614753605472
 30
0.0
 11
0.9358953876908786
 21
0.4062247342482993
 31
0.0
  0
LINE
  5
28F
330
20
100
AcDbEntity
  8
PAPER
100
AcDbLine
 10
0.9301249151208532
 20
0.3729614753605472
 30
0.0
 11
0.9301249151208546
 21
0.4048604028077668
 31
0.0
  0
LINE
  5
290
330
20
100
AcDbEntity
  8
PAPER
100
AcDbLine
 10
0.9243544425508279
 20
0.3729614753605472
 30
0.0
 11
0.9243544425508279
 21
0.4056658088599051
 31
0.0
  0
LINE
  5
291
330
20
100
AcDbEntity
  8
PAPER
100
AcDbLine
 10
0.9185839699808029
 20
0.3729614753605472
 30
0.0
 11
0.9185839699808029
 21
0.4090805880496243
 31
0.0
  0
LINE
  5
292
330
20
100
AcDbEntity
  8
PAPER
100
AcDbLine
 10
0.9128134974107775
 20
0.3729614753605472
 30
0.0
 11
0.9128134974107771
 21
0.5527800035193094
 31
0.0
  0
LINE
  5
293
330
20
100
AcDbEntity
  8
PAPER
100
AcDbLine
 10
0.9070430248407534
 20
0.3729614753605472
 30
0.0
 11
0.9070430248407522
 21
0.5527800035193094
 31
0.0
  0
LINE
  5
294
330
20
100
AcDbEntity
  8
PAPER
100
AcDbLine
 10
0.9012725522707249
 20
0.3729614753605472
 30
0.0
 11
0.9012725522707249
 21
0.5527800035193094
 31
0.0
  0
LINE
  5
295
330
20
100
AcDbEntity
  8
PAPER
100
AcDbLine
 10
0.8955020797007009
 20
0.3729614753605472
 30
0.0
 11
0.8955020797007009
 21
0.5527800035193094
 31
0.0
  0
LINE
  5
296
330
20
100
AcDbEntity
  8
PAPER
100
AcDbLine
 10
0.8897316071306756
 20
0.3729614753605472
 30
0.0
 11
0.8897316071306756
 21
0.5527800035193094
 31
0.0
  0
LINE
  5
297
330
20
100
AcDbEntity
  8
PAPER
100
AcDbLine
 10
0.883961134560651
 20
0.373355697788363
 30
0.0
 11
0.883961134560651
 21
0.5523857810915257
 31
0.0
  0
LINE
  5
298
330
20
100
AcDbEntity
  8
PAPER
100
AcDbLine
 10
0.8781906619906251
 20
0.3746154623381999
 30
0.0
 11
0.8781906619906251
 21
0.5511260165416044
 31
0.0
  0
LINE
  5
299
330
20
100
AcDbEntity
  8
PAPER
100
AcDbLine
 10
0.8724201894205998
 20
0.3768320057820051
 30
0.0
 11
0.8724201894205998
 21
0.548909473097887
 31
0.0
  0
LINE
  5
29A
330
20
100
AcDbEntity
  8
PAPER
100
AcDbLine
 10
0.8666497168505731
 20
0.3801998184520083
 30
0.0
 11
0.8666497168505731
 21
0.5455416604278936
 31
0.0
  0
LINE
  5
29B
330
20
100
AcDbEntity
  8
PAPER
100
AcDbLine
 10
0.8608792442805494
 20
0.3851359979440543
 30
0.0
 11
0.8608792442805494
 21
0.5406054809358628
 31
0.0
  0
LINE
  5
29C
330
20
100
AcDbEntity
  8
PAPER
100
AcDbLine
 10
0.855108771710525
 20
0.3927673854812139
 30
0.0
 11
0.8551087717105241
 21
0.5329740933985264
 31
0.0
  0
LINE
  5
29D
330
20
100
AcDbEntity
  8
PAPER
100
AcDbLine
 10
1.085927674511538
 20
0.3133407931518792
 30
0.0
 11
1.085927674511537
 21
0.5527800035193094
 31
0.0
  0
LINE
  5
29E
330
20
100
AcDbEntity
  8
PAPER
100
AcDbLine
 10
1.080157201941511
 20
0.3133407931518792
 30
0.0
 11
1.080157201941512
 21
0.5527800035193094
 31
0.0
  0
LINE
  5
29F
330
20
100
AcDbEntity
  8
PAPER
100
AcDbLine
 10
1.074386729371487
 20
0.3133407931518792
 30
0.0
 11
1.074386729371486
 21
0.5527800035193094
 31
0.0
  0
LINE
  5
2A0
330
20
100
AcDbEntity
  8
PAPER
100
AcDbLine
 10
1.068616256801463
 20
0.3133407931518792
 30
0.0
 11
1.068616256801462
 21
0.5527800035193094
 31
0.0
  0
LINE
  5
2A1
330
20
100
AcDbEntity
  8
PAPER
100
AcDbLine
 10
1.062845784231436
 20
0.3133407931518792
 30
0.0
 11
1.062845784231436
 21
0.5527800035193094
 31
0.0
  0
LINE
  5
2A2
330
20
100
AcDbEntity
  8
PAPER
100
AcDbLine
 10
1.057075311661411
 20
0.3133407931518792
 30
0.0
 11
1.057075311661411
 21
0.5527800035193094
 31
0.0
  0
LINE
  5
2A3
330
20
100
AcDbEntity
  8
PAPER
100
AcDbLine
 10
1.051304839091385
 20
0.3133407931518792
 30
0.0
 11
1.051304839091385
 21
0.5527800035193094
 31
0.0
  0
LINE
  5
2A4
330
20
100
AcDbEntity
  8
PAPER
100
AcDbLine
 10
1.045534366521361
 20
0.3133407931518792
 30
0.0
 11
1.045534366521359
 21
0.5527800035193094
 31
0.0
  0
LINE
  5
2A5
330
20
100
AcDbEntity
  8
PAPER
100
AcDbLine
 10
1.039763893951335
 20
0.3133407931518792
 30
0.0
 11
1.039763893951334
 21
0.5527800035193094
 31
0.0
  0
LWPOLYLINE
  5
2A6
330
20
100
AcDbEntity
  8
PAPER
100
AcDbPolyline
 90
       14
 70
     1
 43
0.0
 10
1.038763925574744
 20
0.5527800035193087
 10
1.03876392557474
 20
0.3133407931518795
 10
1.089379855288469
 20
0.3133407931518795
 10
1.089379855288469
 20
0.3852569655925058
 10
1.092510514459754
 20
0.3827513008486167
 42
0.1813224577874149
 10
1.120383683036873
 20
0.3736313603814156
 10
1.130267325542051
 20
0.3729614753605477
 42
0.4544349447676743
 10
1.170120722740361
 20
0.4128148725588541
 10
1.170120722740361
 20
0.5129266063210015
 42
0.4142135623730878
 10
1.130267325542051
 20
0.5527800035193083
 10
1.120383683036876
 20
0.5527800035193087
 42
0.085164233175497
 10
1.104442324157559
 20
0.5500448987409083
 42
0.0977825579206252
 10
1.088500965278228
 20
0.5406018889892099
 10
1.088500965278228
 20
0.5527800035193087
  0
LINE
  5
2B6
330
20
100
AcDbEntity
  8
PAPER
100
AcDbLine
 10
1.005141058531182
 20
0.3954708746429467
 30
0.0
 11
1.005141058531182
 21
0.5302706042367225
 31
0.0
  0
LINE
  5
2B7
330
20
100
AcDbEntity
  8
PAPER
100
AcDbLine
 10
0.9993705859611578
 20
0.3867069840087784
 30
0.0
 11
0.9993705859611578
 21
0.5390344948709885
 31
0.0
  0
LINE
  5
2B8
330
20
100
AcDbEntity
  8
PAPER
100
AcDbLine
 10
0.9936001133911329
 20
0.3812580552602627
 30
0.0
 11
0.9936001133911325
 21
0.544483423619665
 31
0.0
  0
LINE
  5
2B9
330
20
100
AcDbEntity
  8
PAPER
100
AcDbLine
 10
0.9878296408211067
 20
0.3775523303344543
 30
0.0
 11
0.9878296408211067
 21
0.5481891485453721
 31
0.0
  0
LINE
  5
2BA
330
20
100
AcDbEntity
  8
PAPER
100
AcDbLine
 10
0.982059168251083
 20
0.3750727960013103
 30
0.0
 11
0.9820591682510817
 21
0.5506686828785757
 31
0.0
  0
LINE
  5
2BB
330
20
100
AcDbEntity
  8
PAPER
100
AcDbLine
 10
0.9762886956810554
 20
0.3735862466045752
 30
0.0
 11
0.9762886956810554
 21
0.5521552322751651
 31
0.0
  0
LINE
  5
2BC
330
20
100
AcDbEntity
  8
PAPER
100
AcDbLine
 10
0.9705182231110313
 20
0.3729813547844605
 30
0.0
 11
0.9705182231110313
 21
0.552760124095406
 31
0.0
  0
LINE
  5
2BD
330
20
100
AcDbEntity
  8
PAPER
100
AcDbLine
 10
0.9647477505410051
 20
0.3729614753605472
 30
0.0
 11
0.9647477505410051
 21
0.5527800035193094
 31
0.0
  0
LINE
  5
2BE
330
20
100
AcDbEntity
  8
PAPER
100
AcDbLine
 10
0.9589772779709806
 20
0.3729614753605472
 30
0.0
 11
0.9589772779709793
 21
0.5527800035193094
 31
0.0
  0
LINE
  5
2BF
330
20
100
AcDbEntity
  8
PAPER
100
AcDbLine
 10
0.9532068054009556
 20
0.3729614753605472
 30
0.0
 11
0.9532068054009556
 21
0.5527800035193094
 31
0.0
  0
LINE
  5
2C0
330
20
100
AcDbEntity
  8
PAPER
100
AcDbLine
 10
0.9474363328309298
 20
0.3729614753605472
 30
0.0
 11
0.9474363328309298
 21
0.5527800035193094
 31
0.0
  0
LINE
  5
2C1
330
20
100
AcDbEntity
  8
PAPER
100
AcDbLine
 10
1.114780037361662
 20
0.5062165957140559
 30
0.0
 11
1.114780037361662
 21
0.5524505735420105
 31
0.0
  0
LINE
  5
2C2
330
20
100
AcDbEntity
  8
PAPER
100
AcDbLine
 10
1.103239092221613
 20
0.5136216100974148
 30
0.0
 11
1.103239092221613
 21
0.5496012548793717
 31
0.0
  0
LINE
  5
2C3
330
20
100
AcDbEntity
  8
PAPER
100
AcDbLine
 10
1.109009564791637
 20
0.5120051728320288
 30
0.0
 11
1.109009564791638
 21
0.5514077485938954
 31
0.0
  0
LINE
  5
2C4
330
20
100
AcDbEntity
  8
PAPER
100
AcDbLine
 10
1.091698147081564
 20
0.5085818423503062
 30
0.0
 11
1.091698147081564
 21
0.543221869091571
 31
0.0
  0
LINE
  5
2C5
330
20
100
AcDbEntity
  8
PAPER
100
AcDbLine
 10
1.09746861965159
 20
0.5127242929656618
 30
0.0
 11
1.097468619651589
 21
0.5469326129858912
 31
0.0
  0
LINE
  5
2C6
330
20
100
AcDbEntity
  8
PAPER
100
AcDbLine
 10
1.166714290491893
 20
0.3945030082581915
 30
0.0
 11
1.166714290491893
 21
0.5290483932627267
 31
0.0
  0
LINE
  5
2C7
330
20
100
AcDbEntity
  8
PAPER
100
AcDbLine
 10
1.160943817921867
 20
0.3856434272371085
 30
0.0
 11
1.160943817921867
 21
0.5383676378157574
 31
0.0
  0
LINE
  5
2C8
330
20
100
AcDbEntity
  8
PAPER
100
AcDbLine
 10
1.155173345351841
 20
0.3803058821927008
 30
0.0
 11
1.155173345351842
 21
0.5440390386509629
 31
0.0
  0
LINE
  5
2C9
330
20
100
AcDbEntity
  8
PAPER
100
AcDbLine
 10
1.149402872781816
 20
0.3767634869824137
 30
0.0
 11
1.149402872781816
 21
0.5478854978949615
 31
0.0
  0
LINE
  5
2CA
330
20
100
AcDbEntity
  8
PAPER
100
AcDbLine
 10
1.143632400211791
 20
0.3744794151308122
 30
0.0
 11
1.143632400211791
 21
0.550472152625712
 31
0.0
  0
LINE
  5
2CB
330
20
100
AcDbEntity
  8
PAPER
100
AcDbLine
 10
1.137861927641765
 20
0.3732203046739746
 30
0.0
 11
1.137861927641765
 21
0.5520496850240305
 31
0.0
  0
LINE
  5
2CC
330
20
100
AcDbEntity
  8
PAPER
100
AcDbLine
 10
1.13209145507174
 20
0.3728825001730855
 30
0.0
 11
1.13209145507174
 21
0.5527382355228115
 31
0.0
  0
LINE
  5
2CD
330
20
100
AcDbEntity
  8
PAPER
100
AcDbLine
 10
1.126320982501715
 20
0.3732289472049153
 30
0.0
 11
1.126320982501715
 21
0.5527800035193085
 31
0.0
  0
LINE
  5
2CE
330
20
100
AcDbEntity
  8
PAPER
100
AcDbLine
 10
1.12055050993169
 20
0.3736200533316258
 30
0.0
 11
1.12055050993169
 21
0.5527800035193085
 31
0.0
  0
LINE
  5
2CF
330
20
100
AcDbEntity
  8
PAPER
100
AcDbLine
 10
1.114780037361662
 20
0.3737693774901458
 30
0.0
 11
1.114780037361662
 21
0.4195248831656978
 31
0.0
  0
LINE
  5
2D0
330
20
100
AcDbEntity
  8
PAPER
100
AcDbLine
 10
1.109009564791638
 20
0.374711492745728
 30
0.0
 11
1.109009564791637
 21
0.413736306047788
 31
0.0
  0
LINE
  5
2D1
330
20
100
AcDbEntity
  8
PAPER
100
AcDbLine
 10
1.103239092221613
 20
0.3765241585887995
 30
0.0
 11
1.103239092221613
 21
0.4121198687824064
 31
0.0
  0
LINE
  5
2D2
330
20
100
AcDbEntity
  8
PAPER
100
AcDbLine
 10
1.097468619651589
 20
0.3793385658356045
 30
0.0
 11
1.09746861965159
 21
0.4130171859141426
 31
0.0
  0
LINE
  5
2D3
330
20
100
AcDbEntity
  8
PAPER
100
AcDbLine
 10
1.091698147081564
 20
0.3834014898941989
 30
0.0
 11
1.091698147081564
 21
0.4171596365294742
 31
0.0
  0
LWPOLYLINE
  5
2D4
330
20
100
AcDbEntity
  8
PAPER
100
AcDbPolyline
 90
        4
 70
     1
 43
0.0
 10
1.116398343317045
 20
0.426046200428692
 10
1.116398343317048
 20
0.4996952784511639
 42
1.000000000000026
 10
1.088500965278228
 20
0.4996952784511639
 10
1.088500965278228
 20
0.426046200428692
 42
0.9999999999999998
  0
LWPOLYLINE
  5
2DA
330
20
100
AcDbEntity
  8
PAPER
100
AcDbPolyline
 90
       11
 70
     1
 43
0.0
 10
1.496892326062627
 20
0.5524611763417231
 10
1.538684940030307
 20
0.5524611763417231
 10
1.47832378001591
 20
0.3612812631982389
 42
-0.3272249499159052
 10
1.440319618096905
 20
0.3334269053398247
 10
1.379271351237073
 20
0.3334269053398247
 10
1.379271351237077
 20
0.3531941903501854
 10
1.416400195556034
 20
0.3531941903501854
 42
0.500425742919699
 10
1.431697805839234
 20
0.3736199714378292
 10
1.37927135123708
 20
0.5524611763417231
 10
1.420801844924441
 20
0.5524611763417231
 10
1.457435914654356
 20
0.4274921846227587
  0
LINE
  5
2E7
330
20
100
AcDbEntity
  8
PAPER
100
AcDbLine
 10
1.426385556143035
 20
0.3334269053398244
 30
0.0
 11
1.426385556143035
 21
0.356708985067719
 31
0.0
  0
LINE
  5
2E8
330
20
100
AcDbEntity
  8
PAPER
100
AcDbLine
 10
1.420615083573007
 20
0.3334269053398244
 30
0.0
 11
1.420615083573008
 21
0.3537614917972822
 31
0.0
  0
LINE
  5
2E9
330
20
100
AcDbEntity
  8
PAPER
100
AcDbLine
 10
1.414844611002982
 20
0.3334269053398244
 30
0.0
 11
1.414844611002982
 21
0.3531941903501854
 31
0.0
  0
LINE
  5
2EA
330
20
100
AcDbEntity
  8
PAPER
100
AcDbLine
 10
1.409074138432958
 20
0.3334269053398244
 30
0.0
 11
1.409074138432958
 21
0.3531941903501854
 31
0.0
  0
LINE
  5
2EB
330
20
100
AcDbEntity
  8
PAPER
100
AcDbLine
 10
1.403303665862932
 20
0.3334269053398244
 30
0.0
 11
1.403303665862931
 21
0.3531941903501854
 31
0.0
  0
LINE
  5
2EC
330
20
100
AcDbEntity
  8
PAPER
100
AcDbLine
 10
1.397533193292907
 20
0.3334269053398244
 30
0.0
 11
1.397533193292907
 21
0.3531941903501854
 31
0.0
  0
LINE
  5
2ED
330
20
100
AcDbEntity
  8
PAPER
100
AcDbLine
 10
1.391762720722881
 20
0.3334269053398244
 30
0.0
 11
1.39176272072288
 21
0.3531941903501854
 31
0.0
  0
LINE
  5
2EE
330
20
100
AcDbEntity
  8
PAPER
100
AcDbLine
 10
1.385992248152857
 20
0.3334269053398244
 30
0.0
 11
1.385992248152856
 21
0.3531941903501854
 31
0.0
  0
LINE
  5
2EF
330
20
100
AcDbEntity
  8
PAPER
100
AcDbLine
 10
1.38022177558283
 20
0.3334269053398244
 30
0.0
 11
1.380221775582829
 21
0.3531941903501854
 31
0.0
  0
LWPOLYLINE
  5
2F0
330
20
100
AcDbEntity
  8
PAPER
100
AcDbPolyline
 90
       17
 70
     1
 43
0.0
 10
1.295738630709426
 20
0.3732803025381342
 10
1.359504066226716
 20
0.3732803025381322
 10
1.35950406622672
 20
0.5126077791434152
 42
0.4142135623730996
 10
1.319650669028414
 20
0.552461176341722
 10
1.239943874631795
 20
0.5524611763417231
 42
0.3563939586927657
 10
1.200895679570868
 20
0.5205784585830566
 10
1.200895679570913
 20
0.5008111735727168
 10
1.263855912950778
 20
0.5008111735727168
 10
1.263855912950778
 20
0.5205784585830769
 10
1.295738630709426
 20
0.5205784585830769
 10
1.295738630709426
 20
0.4940481662509573
 10
1.223550682378897
 20
0.4550019875673489
 42
0.2561579178272127
 10
1.200090477433492
 20
0.4186762870785018
 10
1.200090477433492
 20
0.4131336997364419
 42
0.4142135623730949
 10
1.239943874631795
 20
0.3732803025381342
 10
1.263855912950778
 20
0.3732803025381348
 42
0.3566469110183342
 10
1.295100180665887
 20
0.3988145223150423
  0
LINE
  5
303
330
20
100
AcDbEntity
  8
PAPER
100
AcDbLine
 10
1.29366468703245
 20
0.4667081515446839
 30
0.0
 11
1.29366468703245
 21
0.4929263782342071
 31
0.0
  0
LINE
  5
304
330
20
100
AcDbEntity
  8
PAPER
100
AcDbLine
 10
1.276353269322374
 20
0.4687602077781364
 30
0.0
 11
1.276353269322374
 21
0.4835627001576509
 31
0.0
  0
LINE
  5
305
330
20
100
AcDbEntity
  8
PAPER
100
AcDbLine
 10
1.282123741892401
 20
0.4715561523690378
 30
0.0
 11
1.282123741892401
 21
0.4866839261831702
 31
0.0
  0
LINE
  5
306
330
20
100
AcDbEntity
  8
PAPER
100
AcDbLine
 10
1.287894214462424
 20
0.4710911479496545
 30
0.0
 11
1.287894214462425
 21
0.4898051522086887
 31
0.0
  0
LINE
  5
307
330
20
100
AcDbEntity
  8
PAPER
100
AcDbLine
 10
1.29366468703245
 20
0.5205784585830767
 30
0.0
 11
1.29366468703245
 21
0.5524611763417225
 31
0.0
  0
LINE
  5
308
330
20
100
AcDbEntity
  8
PAPER
100
AcDbLine
 10
1.287894214462425
 20
0.5205784585830767
 30
0.0
 11
1.287894214462425
 21
0.5524611763417225
 31
0.0
  0
LINE
  5
309
330
20
100
AcDbEntity
  8
PAPER
100
AcDbLine
 10
1.270582796752349
 20
0.5205784585830767
 30
0.0
 11
1.27058279675235
 21
0.5524611763417225
 31
0.0
  0
LINE
  5
30A
330
20
100
AcDbEntity
  8
PAPER
100
AcDbLine
 10
1.276353269322376
 20
0.5205784585830767
 30
0.0
 11
1.276353269322374
 21
0.5524611763417225
 31
0.0
  0
LINE
  5
30B
330
20
100
AcDbEntity
  8
PAPER
100
AcDbLine
 10
1.282123741892401
 20
0.5205784585830767
 30
0.0
 11
1.2821237418924
 21
0.5524611763417225
 31
0.0
  0
LINE
  5
30C
330
20
100
AcDbEntity
  8
PAPER
100
AcDbLine
 10
1.253271379042273
 20
0.5008111735727166
 30
0.0
 11
1.253271379042273
 21
0.5524611763417234
 31
0.0
  0
LINE
  5
30D
330
20
100
AcDbEntity
  8
PAPER
100
AcDbLine
 10
1.264812324182323
 20
0.5205784585830767
 30
0.0
 11
1.264812324182322
 21
0.5524611763417225
 31
0.0
  0
LINE
  5
30E
330
20
100
AcDbEntity
  8
PAPER
100
AcDbLine
 10
1.259041851612298
 20
0.5008111735727166
 30
0.0
 11
1.259041851612298
 21
0.5524611763417225
 31
0.0
  0
LINE
  5
30F
330
20
100
AcDbEntity
  8
PAPER
100
AcDbLine
 10
1.235959961332196
 20
0.5008111735727166
 30
0.0
 11
1.235959961332196
 21
0.5522615520163646
 31
0.0
  0
LINE
  5
310
330
20
100
AcDbEntity
  8
PAPER
100
AcDbLine
 10
1.247500906472249
 20
0.5008111735727166
 30
0.0
 11
1.247500906472248
 21
0.5524611763417234
 31
0.0
  0
LINE
  5
311
330
20
100
AcDbEntity
  8
PAPER
100
AcDbLine
 10
1.241730433902222
 20
0.5008111735727166
 30
0.0
 11
1.241730433902222
 21
0.5524611763417234
 31
0.0
  0
LINE
  5
312
330
20
100
AcDbEntity
  8
PAPER
100
AcDbLine
 10
1.218648543622122
 20
0.5008111735727166
 30
0.0
 11
1.218648543622121
 21
0.5462946036515167
 31
0.0
  0
LINE
  5
313
330
20
100
AcDbEntity
  8
PAPER
100
AcDbLine
 10
1.224419016192147
 20
0.5008111735727166
 30
0.0
 11
1.224419016192147
 21
0.5493129836609637
 31
0.0
  0
LINE
  5
314
330
20
100
AcDbEntity
  8
PAPER
100
AcDbLine
 10
1.230189488762171
 20
0.5008111735727166
 30
0.0
 11
1.230189488762171
 21
0.5512490165014013
 31
0.0
  0
LINE
  5
315
330
20
100
AcDbEntity
  8
PAPER
100
AcDbLine
 10
1.201337125912043
 20
0.5008111735727166
 30
0.0
 11
1.201337125912044
 21
0.5224977852874363
 31
0.0
  0
LINE
  5
316
330
20
100
AcDbEntity
  8
PAPER
100
AcDbLine
 10
1.207107598482069
 20
0.5008111735727166
 30
0.0
 11
1.20710759848207
 21
0.5351925580190516
 31
0.0
  0
LINE
  5
317
330
20
100
AcDbEntity
  8
PAPER
100
AcDbLine
 10
1.212878071052095
 20
0.5008111735727166
 30
0.0
 11
1.212878071052095
 21
0.5418607370250753
 31
0.0
  0
LINE
  5
318
330
20
100
AcDbEntity
  8
PAPER
100
AcDbLine
 10
1.305205632172501
 20
0.3732803025381342
 30
0.0
 11
1.305205632172501
 21
0.5524611763417225
 31
0.0
  0
LINE
  5
319
330
20
100
AcDbEntity
  8
PAPER
100
AcDbLine
 10
1.299435159602477
 20
0.3732803025381342
 30
0.0
 11
1.299435159602475
 21
0.5524611763417225
 31
0.0
  0
LINE
  5
31A
330
20
100
AcDbEntity
  8
PAPER
100
AcDbLine
 10
1.293664687032449
 20
0.3938517569086384
 30
0.0
 11
1.29366468703245
 21
0.4117227115912535
 31
0.0
  0
LINE
  5
31B
330
20
100
AcDbEntity
  8
PAPER
100
AcDbLine
 10
1.287894214462425
 20
0.3842186236207439
 30
0.0
 11
1.287894214462424
 21
0.407339715186329
 31
0.0
  0
LINE
  5
31C
330
20
100
AcDbEntity
  8
PAPER
100
AcDbLine
 10
1.282123741892401
 20
0.379032690841379
 30
0.0
 11
1.282123741892401
 21
0.4068747107669493
 31
0.0
  0
LINE
  5
31D
330
20
100
AcDbEntity
  8
PAPER
100
AcDbLine
 10
1.276353269322374
 20
0.3758317438941174
 30
0.0
 11
1.276353269322374
 21
0.4096706553578285
 31
0.0
  0
LINE
  5
31E
330
20
100
AcDbEntity
  8
PAPER
100
AcDbLine
 10
1.270582796752349
 20
0.3739980283024227
 30
0.0
 11
1.27058279675235
 21
0.4804414741321315
 31
0.0
  0
LINE
  5
31F
330
20
100
AcDbEntity
  8
PAPER
100
AcDbLine
 10
1.264812324182323
 20
0.3732946508806278
 30
0.0
 11
1.264812324182322
 21
0.4773202481066122
 31
0.0
  0
LINE
  5
320
330
20
100
AcDbEntity
  8
PAPER
100
AcDbLine
 10
1.259041851612298
 20
0.3732803025381342
 30
0.0
 11
1.259041851612298
 21
0.4741990220810937
 31
0.0
  0
LINE
  5
321
330
20
100
AcDbEntity
  8
PAPER
100
AcDbLine
 10
1.253271379042273
 20
0.3732803025381342
 30
0.0
 11
1.253271379042273
 21
0.4710777960555744
 31
0.0
  0
LINE
  5
322
330
20
100
AcDbEntity
  8
PAPER
100
AcDbLine
 10
1.247500906472248
 20
0.3732803025381342
 30
0.0
 11
1.247500906472249
 21
0.4679565700300559
 31
0.0
  0
LINE
  5
323
330
20
100
AcDbEntity
  8
PAPER
100
AcDbLine
 10
1.241730433902221
 20
0.3732803025381342
 30
0.0
 11
1.24173043390222
 21
0.4648353440045357
 31
0.0
  0
LINE
  5
324
330
20
100
AcDbEntity
  8
PAPER
100
AcDbLine
 10
1.235959961332196
 20
0.3734799268633269
 30
0.0
 11
1.235959961332195
 21
0.4617141179790173
 31
0.0
  0
LINE
  5
325
330
20
100
AcDbEntity
  8
PAPER
100
AcDbLine
 10
1.230189488762171
 20
0.3744924623784367
 30
0.0
 11
1.230189488762171
 21
0.4585928919534979
 31
0.0
  0
LINE
  5
326
330
20
100
AcDbEntity
  8
PAPER
100
AcDbLine
 10
1.224419016192147
 20
0.3764284952188237
 30
0.0
 11
1.224419016192147
 21
0.4554716659279795
 31
0.0
  0
LINE
  5
327
330
20
100
AcDbEntity
  8
PAPER
100
AcDbLine
 10
1.218648543622121
 20
0.37944687522834
 30
0.0
 11
1.218648543622122
 21
0.4519271817389744
 31
0.0
  0
LINE
  5
328
330
20
100
AcDbEntity
  8
PAPER
100
AcDbLine
 10
1.212878071052095
 20
0.3838807418546126
 30
0.0
 11
1.212878071052094
 21
0.4469750218450262
 31
0.0
  0
LINE
  5
329
330
20
100
AcDbEntity
  8
PAPER
100
AcDbLine
 10
1.207107598482069
 20
0.3905489208606176
 30
0.0
 11
1.207107598482069
 21
0.4397500811894373
 31
0.0
  0
LINE
  5
32A
330
20
100
AcDbEntity
  8
PAPER
100
AcDbLine
 10
1.201337125912044
 20
0.4032436935918041
 30
0.0
 11
1.201337125912043
 21
0.4264327884905129
 31
0.0
  0
LWPOLYLINE
  5
32B
330
20
100
AcDbEntity
  8
PAPER
100
AcDbPolyline
 90
        4
 70
     1
 43
0.0
 10
1.295718974745186
 20
0.4183177358485317
 10
1.295718974745186
 20
0.4601131272875233
 42
0.9999999999999998
 10
1.272492217045953
 20
0.4601131272875233
 10
1.272492217045953
 20
0.4183177358485317
 42
1.000000000000047
  0
LINE
  5
331
330
20
100
AcDbEntity
  8
PAPER
100
AcDbLine
 10
1.426385556143036
 20
0.3917415313187778
 30
0.0
 11
1.426385556143033
 21
0.5334135857742009
 31
0.0
  0
LINE
  5
332
330
20
100
AcDbEntity
  8
PAPER
100
AcDbLine
 10
1.420615083573008
 20
0.4114262167532593
 30
0.0
 11
1.420615083573008
 21
0.5524611763417234
 31
0.0
  0
LINE
  5
333
330
20
100
AcDbEntity
  8
PAPER
100
AcDbLine
 10
1.409074138432958
 20
0.4507955876222017
 30
0.0
 11
1.409074138432958
 21
0.5524611763417234
 31
0.0
  0
LINE
  5
334
330
20
100
AcDbEntity
  8
PAPER
100
AcDbLine
 10
1.414844611002983
 20
0.4311109021877309
 30
0.0
 11
1.414844611002983
 21
0.5524611763417234
 31
0.0
  0
LINE
  5
335
330
20
100
AcDbEntity
  8
PAPER
100
AcDbLine
 10
1.403303665862932
 20
0.4704802730566814
 30
0.0
 11
1.403303665862934
 21
0.5524611763417234
 31
0.0
  0
LINE
  5
336
330
20
100
AcDbEntity
  8
PAPER
100
AcDbLine
 10
1.397533193292907
 20
0.4901649584911583
 30
0.0
 11
1.397533193292907
 21
0.5524611763417234
 31
0.0
  0
LINE
  5
337
330
20
100
AcDbEntity
  8
PAPER
100
AcDbLine
 10
1.385992248152856
 20
0.5295343293601088
 30
0.0
 11
1.385992248152857
 21
0.5524611763417234
 31
0.0
  0
LINE
  5
338
330
20
100
AcDbEntity
  8
PAPER
100
AcDbLine
 10
1.391762720722881
 20
0.5098496439256362
 30
0.0
 11
1.391762720722881
 21
0.5524611763417234
 31
0.0
  0
LINE
  5
339
330
20
100
AcDbEntity
  8
PAPER
100
AcDbLine
 10
1.38022177558283
 20
0.5492190147945867
 30
0.0
 11
1.380221775582831
 21
0.5524611763417234
 31
0.0
  0
LINE
  5
33A
330
20
100
AcDbEntity
  8
PAPER
100
AcDbLine
 10
1.357139885302729
 20
0.3732803025381324
 30
0.0
 11
1.357139885302729
 21
0.5261300545205117
 31
0.0
  0
LINE
  5
33B
330
20
100
AcDbEntity
  8
PAPER
100
AcDbLine
 10
1.351369412732704
 20
0.3732803025381324
 30
0.0
 11
1.351369412732704
 21
0.536736901921884
 31
0.0
  0
LINE
  5
33C
330
20
100
AcDbEntity
  8
PAPER
100
AcDbLine
 10
1.345598940162679
 20
0.3732803025381324
 30
0.0
 11
1.345598940162679
 21
0.542856423631714
 31
0.0
  0
LINE
  5
33D
330
20
100
AcDbEntity
  8
PAPER
100
AcDbLine
 10
1.339828467592653
 20
0.3732803025381324
 30
0.0
 11
1.339828467592653
 21
0.5469756378683613
 31
0.0
  0
LINE
  5
33E
330
20
100
AcDbEntity
  8
PAPER
100
AcDbLine
 10
1.334057995022629
 20
0.3732803025381324
 30
0.0
 11
1.334057995022629
 21
0.5497658499482022
 31
0.0
  0
LINE
  5
33F
330
20
100
AcDbEntity
  8
PAPER
100
AcDbLine
 10
1.328287522452602
 20
0.3732803025381333
 30
0.0
 11
1.328287522452602
 21
0.5515140515318916
 31
0.0
  0
LINE
  5
340
330
20
100
AcDbEntity
  8
PAPER
100
AcDbLine
 10
1.322517049882577
 20
0.3732803025381333
 30
0.0
 11
1.322517049882577
 21
0.5523579631560212
 31
0.0
  0
LINE
  5
341
330
20
100
AcDbEntity
  8
PAPER
100
AcDbLine
 10
1.316746577312552
 20
0.3732803025381333
 30
0.0
 11
1.316746577312551
 21
0.5524611763417225
 31
0.0
  0
LINE
  5
342
330
20
100
AcDbEntity
  8
PAPER
100
AcDbLine
 10
1.310976104742527
 20
0.3732803025381342
 30
0.0
 11
1.310976104742527
 21
0.5524611763417225
 31
0.0
  0
LINE
  5
343
330
20
100
AcDbEntity
  8
PAPER
100
AcDbLine
 10
1.443696973853109
 20
0.3335702693432709
 30
0.0
 11
1.443696973853109
 21
0.4743595294707779
 31
0.0
  0
LINE
  5
344
330
20
100
AcDbEntity
  8
PAPER
100
AcDbLine
 10
1.449467446423135
 20
0.3344909933775575
 30
0.0
 11
1.449467446423136
 21
0.4546748440363027
 31
0.0
  0
LINE
  5
345
330
20
100
AcDbEntity
  8
PAPER
100
AcDbLine
 10
1.455237918993159
 20
0.3363244157728322
 30
0.0
 11
1.455237918993159
 21
0.434990158601832
 31
0.0
  0
LINE
  5
346
330
20
100
AcDbEntity
  8
PAPER
100
AcDbLine
 10
1.461008391563187
 20
0.3392175968220312
 30
0.0
 11
1.461008391563184
 21
0.4388071730188433
 31
0.0
  0
LINE
  5
347
330
20
100
AcDbEntity
  8
PAPER
100
AcDbLine
 10
1.46677886413321
 20
0.3434775917984794
 30
0.0
 11
1.466778864133209
 21
0.4570838006461269
 31
0.0
  0
LINE
  5
348
330
20
100
AcDbEntity
  8
PAPER
100
AcDbLine
 10
1.472549336703235
 20
0.3498380648719495
 30
0.0
 11
1.472549336703237
 21
0.4753604282734159
 31
0.0
  0
LINE
  5
349
330
20
100
AcDbEntity
  8
PAPER
100
AcDbLine
 10
1.478319809273261
 20
0.3612686940363037
 30
0.0
 11
1.47831980927326
 21
0.4936370559007023
 31
0.0
  0
LINE
  5
34A
330
20
100
AcDbEntity
  8
PAPER
100
AcDbLine
 10
1.437926501283085
 20
0.3334269053398244
 30
0.0
 11
1.437926501283083
 21
0.4940442149052523
 31
0.0
  0
LINE
  5
34B
330
20
100
AcDbEntity
  8
PAPER
100
AcDbLine
 10
1.432156028713059
 20
0.3334269053398244
 30
0.0
 11
1.43215602871306
 21
0.5137289003397293
 31
0.0
  0
LINE
  5
34C
330
20
100
AcDbEntity
  8
PAPER
100
AcDbLine
 10
1.536024534973513
 20
0.5440349630687658
 30
0.0
 11
1.536024534973513
 21
0.5524611763417234
 31
0.0
  0
LINE
  5
34D
330
20
100
AcDbEntity
  8
PAPER
100
AcDbLine
 10
1.530254062403488
 20
0.5257583354414786
 30
0.0
 11
1.530254062403488
 21
0.5524611763417234
 31
0.0
  0
LINE
  5
34E
330
20
100
AcDbEntity
  8
PAPER
100
AcDbLine
 10
1.484090281843287
 20
0.3795453144231791
 30
0.0
 11
1.484090281843287
 21
0.5119136835279904
 31
0.0
  0
LINE
  5
34F
330
20
100
AcDbEntity
  8
PAPER
100
AcDbLine
 10
1.489860754413312
 20
0.3978219420504663
 30
0.0
 11
1.489860754413312
 21
0.5301903111552776
 31
0.0
  0
LINE
  5
350
330
20
100
AcDbEntity
  8
PAPER
100
AcDbLine
 10
1.495631226983337
 20
0.4160985696777536
 30
0.0
 11
1.495631226983337
 21
0.548466938782563
 31
0.0
  0
LINE
  5
351
330
20
100
AcDbEntity
  8
PAPER
100
AcDbLine
 10
1.501401699553362
 20
0.4343751973050417
 30
0.0
 11
1.501401699553362
 21
0.5524611763417234
 31
0.0
  0
LINE
  5
352
330
20
100
AcDbEntity
  8
PAPER
100
AcDbLine
 10
1.507172172123388
 20
0.4526518249323289
 30
0.0
 11
1.507172172123389
 21
0.5524611763417234
 31
0.0
  0
LINE
  5
353
330
20
100
AcDbEntity
  8
PAPER
100
AcDbLine
 10
1.512942644693415
 20
0.4709284525596223
 30
0.0
 11
1.512942644693415
 21
0.5524611763417234
 31
0.0
  0
LINE
  5
354
330
20
100
AcDbEntity
  8
PAPER
100
AcDbLine
 10
1.518713117263439
 20
0.4892050801869095
 30
0.0
 11
1.518713117263439
 21
0.5524611763417234
 31
0.0
  0
LINE
  5
355
330
20
100
AcDbEntity
  8
PAPER
100
AcDbLine
 10
1.524483589833462
 20
0.5074817078141914
 30
0.0
 11
1.524483589833462
 21
0.5524611763417234
 31
0.0
  0
ENDBLK
  5
356
330
20
100
AcDbEntity
  8
0
100
AcDbBlockEnd
  0
BLOCK
  5
56F
330
56D
100
AcDbEntity
  8
0
100
AcDbBlockBegin
  2
A$C0C8E303C
 70
     0
 10
0.0
 20
0.0
 30
0.0
  3
A$C0C8E303C
  1

  0
TEXT
  5
56E
330
56D
100
AcDbEntity
  8
PAPER
100
AcDbText
 10
-0.0133333404476792
 20
0.0133333293341025
 30
0.833359574243258
 40
0.07
  1
REV. DEC. 3, 1997
 72
     2
 11
1.016666659552321
 21
0.0133333293341025
 31
0.833359574243258
100
AcDbText
  0
ENDBLK
  5
570
330
56D
100
AcDbEntity
  8
0
100
AcDbBlockEnd
  0
ENDSEC
  0
SECTION
  2
ENTITIES
  0
LINE
  5
35A
330
17
100
AcDbEntity
  8
DEFPOINTS
  6
CENTER
100
AcDbLine
 10
-0.5
 20
0.0
 30
0.0
 11
0.5
 21
0.0
 31
0.0
  0
LINE
  5
35B
330
17
100
AcDbEntity
  8
DEFPOINTS
  6
CENTER
100
AcDbLine
 10
0.0
 20
-0.5
 30
0.0
 11
0.0
 21
0.5
 31
0.0
  0
LINE
  5
35C
330
17
100
AcDbEntity
  8
DEFPOINTS
  6
CENTER
100
AcDbLine
 10
11.0
 20
-0.5
 30
0.0
 11
11.0
 21
0.5
 31
0.0
  0
LINE
  5
35D
330
17
100
AcDbEntity
  8
DEFPOINTS
  6
CENTER
100
AcDbLine
 10
10.5
 20
0.0
 30
0.0
 11
11.5
 21
0.0
 31
0.0
  0
LINE
  5
35E
330
17
100
AcDbEntity
  8
DEFPOINTS
  6
CENTER
100
AcDbLine
 10
0.0
 20
8.0
 30
0.0
 11
0.0
 21
9.0
 31
0.0
  0
LINE
  5
35F
330
17
100
AcDbEntity
  8
DEFPOINTS
  6
CENTER
100
AcDbLine
 10
-0.5
 20
8.5
 30
0.0
 11
0.5
 21
8.5
 31
0.0
  0
LINE
  5
360
330
17
100
AcDbEntity
  8
DEFPOINTS
  6
CENTER
100
AcDbLine
 10
11.0
 20
8.0
 30
0.0
 11
11.0
 21
9.0
 31
0.0
  0
LINE
  5
361
330
17
100
AcDbEntity
  8
DEFPOINTS
  6
CENTER
100
AcDbLine
 10
10.5
 20
8.5
 30
0.0
 11
11.5
 21
8.5
 31
0.0
  0
LINE
  5
362
330
17
100
AcDbEntity
  8
PAPER
100
AcDbLine
 10
0.1822000000000003
 20
1.452554581608635
 30
0.0
 11
10.82409243843734
 21
1.452554581608635
 31
0.0
  0
LINE
  5
363
330
17
100
AcDbEntity
  8
PAPER
100
AcDbLine
 10
0.1822000000000003
 20
1.459754581608635
 30
0.0
 11
10.82409243843734
 21
1.459754581608635
 31
0.0
  0
LINE
  5
364
330
17
100
AcDbEntity
  8
PAPER
100
AcDbLine
 10
0.1822000000000003
 20
1.445354581608635
 30
0.0
 11
10.82409243843734
 21
1.445354581608635
 31
0.0
  0
LWPOLYLINE
  5
367
330
17
100
AcDbEntity
  8
PAPER
100
AcDbPolyline
 90
        4
 70
     1
 43
0.0
 10
0.175
 20
0.7025545816086356
 10
10.825
 20
0.7025545816086356
 10
10.825
 20
8.325000000000001
 10
0.175
 20
8.325000000000001
  0
LWPOLYLINE
  5
36D
330
17
100
AcDbEntity
  8
PAPER
100
AcDbPolyline
 90
        4
 70
     1
 43
0.0
 10
0.1678
 20
0.6953545816086355
 10
10.8322
 20
0.6953545816086355
 10
10.8322
 20
8.3322
 10
0.1678
 20
8.332199999999998
  0
LWPOLYLINE
  5
373
330
17
100
AcDbEntity
  8
PAPER
100
AcDbPolyline
 90
        4
 70
     1
 43
0.0
 10
0.1822
 20
0.7097545816086356
 10
10.8178
 20
0.7097545816086356
 10
10.8178
 20
8.3178
 10
0.1822
 20
8.3178
  0
TEXT
  5
39C
330
17
100
AcDbEntity
  8
PAPER
100
AcDbText
 10
7.116015223579721
 20
7.143748983543686
 30
0.0
 40
0.07
  1
SPRING BUMPER:
  7
arial1
100
AcDbText
  0
TEXT
  5
39D
330
17
100
AcDbEntity
  8
PAPER
100
AcDbText
 10
7.420772780147283
 20
2.881729473666204
 30
0.0
 40
0.07
  1
%%uVERTICAL TRACK:
  7
ARIAL2
100
AcDbText
  0
SOLID
  5
39E
330
17
100
AcDbEntity
  8
PAPER
100
AcDbTrace
 10
8.939049149815515
 20
3.176690682100434
 30
0.0
 11
8.950040785751035
 21
3.156108447432997
 31
0.0
 12
9.006291671785584
 22
3.199374472573278
 32
0.0
 13
9.006291671785584
 23
3.199374472573278
 33
0.0
  0
LINE
  5
39F
330
17
100
AcDbEntity
  8
PAPER
100
AcDbLine
 10
8.944544967783276
 20
3.166399564766716
 30
0.0
 11
8.467927788532369
 21
2.911869257461029
 31
0.0
  0
LINE
  5
3A0
330
17
100
AcDbEntity
  8
PAPER
100
AcDbLine
 10
8.467927788532369
 20
2.911869257461029
 30
0.0
 11
8.397927788532369
 21
2.911869257461029
 31
0.0
  0
INSERT
  5
3A1
330
17
100
AcDbEntity
  8
PAPER
100
AcDbBlockReference
  2
RECT
 10
7.439012429232958
 20
2.441102824756348
 30
0.0
 41
0.09375
 42
0.09375
 43
0.09375
  0
INSERT
  5
3A2
330
17
100
AcDbEntity
  8
PAPER
100
AcDbBlockReference
  2
RECT
 10
7.439012429232958
 20
2.675298299639488
 30
0.0
 41
0.09375
 42
0.09375
 43
0.09375
  0
TEXT
  5
3A3
330
17
100
AcDbEntity
  8
PAPER
100
AcDbText
 10
7.598678606607824
 20
2.40089983934117
 30
0.0
 40
0.07
  1
3" TRACK
  7
arial1
100
AcDbText
  0
TEXT
  5
3A4
330
17
100
AcDbEntity
  8
PAPER
100
AcDbText
 10
7.598678606607824
 20
2.499123612360789
 30
0.0
 40
0.07
  1
12 GA. MIN.
  7
arial1
100
AcDbText
  0
TEXT
  5
3A5
330
17
100
AcDbEntity
  8
PAPER
100
AcDbText
 10
7.598678606607824
 20
2.634233172674503
 30
0.0
 40
0.07
  1
2" TRACK
  7
arial1
100
AcDbText
  0
TEXT
  5
3A6
330
17
100
AcDbEntity
  8
PAPER
100
AcDbText
 10
7.598678606607824
 20
2.732456945694122
 30
0.0
 40
0.07
  1
16 GA. MIN. 
  7
arial1
100
AcDbText
  0
TEXT
  5
3A7
330
17
100
AcDbEntity
  8
PAPER
100
AcDbText
 10
7.265212088896515
 20
6.386052058366955
 30
0.0
 40
0.07
  1
%%UJAMB ANGLE:
  7
ARIAL2
100
AcDbText
  0
TEXT
  5
3A8
330
17
100
AcDbEntity
  8
PAPER
100
AcDbText
 10
7.265212088896515
 20
6.269385391700288
 30
0.0
 40
0.07
  1
12 GA.
  7
arial1
100
AcDbText
  0
LWPOLYLINE
  5
3A9
330
17
100
AcDbEntity
  8
PAPER
100
AcDbPolyline
 90
        3
 70
     0
 43
0.0
 10
2.958713308133687
 20
3.259311752823829
 10
2.458713308133687
 20
3.259311752823829
 10
2.458713308133687
 20
3.093774709173648
  0
LWPOLYLINE
  5
3AE
330
17
100
AcDbEntity
  8
PAPER
100
AcDbPolyline
 90
        4
 70
     0
 43
0.0
 10
2.458713308133687
 20
2.925924709173647
 10
2.458713308133687
 20
2.759311752823829
 10
2.958713308133687
 20
2.759311752823829
 10
2.958713308133687
 20
2.925924709173648
  0
LWPOLYLINE
  5
3B4
330
17
100
AcDbEntity
  8
PAPER
100
AcDbPolyline
 90
        2
 70
     0
 43
0.0
 10
2.958713308133687
 20
3.093774709173646
 10
2.958713308133687
 20
3.259311752823829
  0
LINE
  5
3B8
330
17
100
AcDbEntity
  8
PAPER
100
AcDbLine
 10
1.103231609988368
 20
2.525302329356385
 30
0.0
 11
1.103231609988368
 21
2.89363343089277
 31
0.0
  0
LINE
  5
3B9
330
17
100
AcDbEntity
  8
PAPER
100
AcDbLine
 10
1.103231609988368
 20
3.276091925029654
 30
0.0
 11
0.6603446767381554
 21
3.276091925029654
 31
0.0
  0
LINE
  5
3BA
330
17
100
AcDbEntity
  8
PAPER
100
AcDbLine
 10
1.103231609988368
 20
3.12562993259464
 30
0.0
 11
1.103231609988368
 21
3.276091925029654
 31
0.0
  0
CIRCLE
  5
3BB
330
17
100
AcDbEntity
  8
PAPER
100
AcDbCircle
 10
1.022532983417372
 20
2.945996781001215
 30
0.0
 40
0.0082700277068097
  0
CIRCLE
  5
3BC
330
17
100
AcDbEntity
  8
PAPER
100
AcDbCircle
 10
1.022532983417372
 20
3.075009213227466
 30
0.0
 40
0.0082700277068097
  0
LWPOLYLINE
  5
3BD
330
17
100
AcDbEntity
  8
PAPER
100
AcDbPolyline
 90
        3
 70
     0
 43
0.0
 10
1.039071262261172
 20
3.104781312971986
 10
1.001033220920432
 20
3.104781312971986
 10
1.001033220920432
 20
3.028599709173648
  0
LWPOLYLINE
  5
3C2
330
17
100
AcDbEntity
  8
PAPER
100
AcDbPolyline
 90
        3
 70
     0
 43
0.0
 10
1.001033220920432
 20
2.991099709173647
 10
1.001033220920432
 20
2.917878686798059
 10
1.039071262261172
 20
2.917878686798059
  0
LWPOLYLINE
  5
3C7
330
17
100
AcDbEntity
  8
PAPER
100
AcDbPolyline
 90
        3
 70
     0
 43
0.0
 10
4.512847147617288
 20
2.991099709173647
 10
4.512847147617288
 20
2.917878686798059
 10
4.474809106276548
 20
2.917878686798059
  0
LWPOLYLINE
  5
3CC
330
17
100
AcDbEntity
  8
PAPER
100
AcDbPolyline
 90
        3
 70
     0
 43
0.0
 10
4.474809106276548
 20
3.104781312971986
 10
4.512847147617288
 20
3.104781312971986
 10
4.512847147617288
 20
3.028599709173648
  0
CIRCLE
  5
3D1
330
17
100
AcDbEntity
  8
PAPER
100
AcDbCircle
 10
4.491347385120349
 20
3.075009213227466
 30
0.0
 40
0.0082700277068097
  0
CIRCLE
  5
3D2
330
17
100
AcDbEntity
  8
PAPER
100
AcDbCircle
 10
4.491347385120349
 20
2.945996781001215
 30
0.0
 40
0.0082700277068097
  0
LINE
  5
3D3
330
17
100
AcDbEntity
  8
PAPER
100
AcDbLine
 10
4.410648758549353
 20
2.592937532126724
 30
0.0
 11
4.410648758549353
 21
2.897808737048083
 31
0.0
  0
LINE
  5
3D4
330
17
100
AcDbEntity
  8
PAPER
100
AcDbLine
 10
4.410648758549353
 20
3.121454626439327
 30
0.0
 11
4.410648758549353
 21
3.276091925029654
 31
0.0
  0
LINE
  5
3D5
330
17
100
AcDbEntity
  8
PAPER
100
AcDbLine
 10
4.410648758549353
 20
3.276091925029654
 30
0.0
 11
4.853535691799566
 21
3.276091925029654
 31
0.0
  0
TEXT
  5
3D6
330
17
100
AcDbEntity
  8
PAPER
100
AcDbText
 10
0.82384748046479
 20
2.345871683369214
 30
0.0
 40
0.07
  1
%%uSPRING PAD - BY OTHERS:
  7
ARIAL2
100
AcDbText
  0
TEXT
  5
3D7
330
17
100
AcDbEntity
  8
PAPER
100
AcDbText
 10
0.9876098808732848
 20
2.088987231754967
 30
0.0
 40
0.07
  1
STEEL - 10"W x 12"H x 1/4"
  7
arial1
100
AcDbText
  0
TEXT
  5
3D8
330
17
100
AcDbEntity
  8
PAPER
100
AcDbText
 10
0.9876098808732848
 20
1.773101283627129
 30
0.0
 40
0.07
  1
WOOD - 2" x 6" LUMBER x 12"
  7
arial1
100
AcDbText
  0
INSERT
  5
3D9
330
17
100
AcDbEntity
  8
PAPER
100
AcDbBlockReference
  2
RECT
 10
0.8420871295504671
 20
2.027476494341938
 30
0.0
 41
0.09375
 42
0.09375
 43
0.09375
  0
INSERT
  5
3DA
330
17
100
AcDbEntity
  8
PAPER
100
AcDbBlockReference
  2
RECT
 10
0.8420871295504671
 20
1.712078805272092
 30
0.0
 41
0.09375
 42
0.09375
 43
0.09375
  0
SOLID
  5
3DB
330
17
100
AcDbEntity
  8
PAPER
100
AcDbTrace
 10
2.576766954756306
 20
2.750303284907841
 30
0.0
 11
2.59855087155571
 21
2.741942339188542
 31
0.0
 12
2.612741750313905
 22
2.811474562446405
 32
0.0
 13
2.612741750313905
 23
2.811474562446405
 33
0.0
  0
LINE
  5
3DC
330
17
100
AcDbEntity
  8
PAPER
100
AcDbLine
 10
2.587658913156008
 20
2.746122812048192
 30
0.0
 11
2.447321059046745
 21
2.380481383391787
 31
0.0
  0
LINE
  5
3DD
330
17
100
AcDbEntity
  8
PAPER
100
AcDbLine
 10
2.447321059046745
 20
2.380481383391787
 30
0.0
 11
2.377321059046745
 21
2.380481383391787
 31
0.0
  0
TEXT
  5
3DE
330
17
100
AcDbEntity
  8
PAPER
100
AcDbText
 10
0.3418891100351813
 20
6.781993680271143
 30
0.0
 40
0.07
  1
%%uHEADROOM REQUIREMENTS:
  7
ARIAL2
 72
     1
 11
1.056309301031088
 21
6.781993680271143
 31
0.0
100
AcDbText
  0
SOLID
  5
3DF
330
17
100
AcDbEntity
  8
PAPER
100
AcDbTrace
 10
3.050331752193988
 20
2.874826740571823
 30
0.0
 11
3.072285791804258
 21
2.882730194831521
 31
0.0
 12
3.037598409220032
 22
2.944640586532483
 32
0.0
 13
3.037598409220032
 23
2.944640586532483
 33
0.0
  0
LINE
  5
3E0
330
17
100
AcDbEntity
  8
PAPER
100
AcDbLine
 10
3.061308771999124
 20
2.878778467701672
 30
0.0
 11
3.15934177420664
 21
2.606464572680791
 31
0.0
  0
LINE
  5
3E1
330
17
100
AcDbEntity
  8
PAPER
100
AcDbLine
 10
3.15934177420664
 20
2.606464572680791
 30
0.0
 11
3.229341774206639
 21
2.606464572680791
 31
0.0
  0
TEXT
  5
3E2
330
17
100
AcDbEntity
  8
PAPER
100
AcDbText
 10
3.299341774206639
 20
2.571464572680791
 30
0.0
 40
0.07
  1
%%uTORSION SPRINGS:
  7
ARIAL2
100
AcDbText
  0
SOLID
  5
3E3
330
17
100
AcDbEntity
  8
PAPER
100
AcDbTrace
 10
1.446657803467712
 20
3.09849832330194
 30
0.0
 11
1.42524817221048
 21
3.107775830180073
 31
0.0
 12
1.408120467204695
 22
3.038908182969312
 32
0.0
 13
1.408120467204695
 23
3.038908182969312
 33
0.0
  0
LINE
  5
3E4
330
17
100
AcDbEntity
  8
PAPER
100
AcDbLine
 10
1.435952987839096
 20
3.103137076741007
 30
0.0
 11
1.583971994407573
 21
3.444719399591339
 31
0.0
  0
LINE
  5
3E5
330
17
100
AcDbEntity
  8
PAPER
100
AcDbLine
 10
1.583971994407573
 20
3.444719399591339
 30
0.0
 11
1.653971994407574
 21
3.444719399591339
 31
0.0
  0
TEXT
  5
3E6
330
17
100
AcDbEntity
  8
PAPER
100
AcDbText
 10
1.723971994407574
 20
3.409719399591339
 30
0.0
 40
0.07
  1
1" O.D. SHAFT:
  7
arial1
100
AcDbText
  0
SOLID
  5
3E7
330
17
100
AcDbEntity
  8
PAPER
100
AcDbTrace
 10
4.293410730948384
 20
3.182304048258836
 30
0.0
 11
4.271872269409922
 21
3.173329689284476
 31
0.0
 12
4.30956457710223
 22
3.113201484156271
 32
0.0
 13
4.30956457710223
 23
3.113201484156271
 33
0.0
  0
LINE
  5
3E8
330
17
100
AcDbEntity
  8
PAPER
100
AcDbLine
 10
4.282641500179153
 20
3.177816868771656
 30
0.0
 11
4.174294171561554
 21
3.437850457453895
 31
0.0
  0
LINE
  5
3E9
330
17
100
AcDbEntity
  8
PAPER
100
AcDbLine
 10
4.174294171561554
 20
3.437850457453895
 30
0.0
 11
4.104294171561553
 21
3.437850457453895
 31
0.0
  0
TEXT
  5
3EA
330
17
100
AcDbEntity
  8
PAPER
100
AcDbText
 10
3.357627504894888
 20
3.402850457453895
 30
0.0
 40
0.07
  1
CABLE DRUM:
  7
arial1
100
AcDbText
  0
SOLID
  5
3EB
330
17
100
AcDbEntity
  8
PAPER
100
AcDbTrace
 10
2.732366735637401
 20
3.206468071935453
 30
0.0
 11
2.709551345975595
 21
3.211357084005839
 31
0.0
 12
2.706292004595337
 22
3.140466408985226
 32
0.0
 13
2.706292004595337
 23
3.140466408985226
 33
0.0
  0
LINE
  5
3EC
330
17
100
AcDbEntity
  8
PAPER
100
AcDbLine
 10
2.720959040806498
 20
3.208912577970646
 30
0.0
 11
2.828035369581945
 21
3.708602112256065
 31
0.0
  0
LINE
  5
3ED
330
17
100
AcDbEntity
  8
PAPER
100
AcDbLine
 10
2.828035369581945
 20
3.708602112256065
 30
0.0
 11
2.898035369581945
 21
3.708602112256065
 31
0.0
  0
TEXT
  5
3EE
330
17
100
AcDbEntity
  8
PAPER
100
AcDbText
 10
2.968035369581945
 20
3.673602112256065
 30
0.0
 40
0.07
  1
CENTER SUPPORT BRACKET:
  7
arial1
100
AcDbText
  0
TEXT
  5
3EF
330
17
100
AcDbEntity
  8
PAPER
100
AcDbText
 10
0.82384748046479
 20
2.229205016702547
 30
0.0
 40
0.07
  1
(PADS MUST BE FLUSH WITH JAMBS)
  7
arial1
100
AcDbText
  0
TEXT
  5
3F0
330
17
100
AcDbEntity
  8
PAPER
100
AcDbText
 10
0.3348833400582498
 20
8.093098298035243
 30
0.0
 40
0.125
  1
%%uVERTICAL-LIFT TRACK
  7
ARIALB
 72
     1
 11
1.436094117684443
 21
8.093098298035243
 31
0.0
100
AcDbText
  0
TEXT
  5
3F3
330
17
100
AcDbEntity
  8
PAPER
100
AcDbText
 10
6.4557889474126
 20
0.7548526676323805
 30
0.0
 40
0.06
  1
 
100
AcDbText
  0
SOLID
  5
3F5
330
17
100
AcDbEntity
  8
PAPER
100
AcDbTrace
 10
8.24871807111697
 20
7.43054075900165
 30
0.0
 11
8.269231490249289
 21
7.419421223042524
 31
0.0
 12
8.292333388560509
 22
7.486521248419042
 32
0.0
 13
8.292333388560509
 23
7.486521248419042
 33
0.0
  0
LINE
  5
3F6
330
17
100
AcDbEntity
  8
PAPER
100
AcDbLine
 10
8.258974780683129
 20
7.424980991022088
 30
0.0
 11
8.121974943194164
 21
7.172242468677183
 31
0.0
  0
LINE
  5
3F7
330
17
100
AcDbEntity
  8
PAPER
100
AcDbLine
 10
8.121974943194164
 20
7.172242468677183
 30
0.0
 11
8.051974943194164
 21
7.172242468677183
 31
0.0
  0
LWPOLYLINE
  5
3F8
330
17
100
AcDbEntity
  8
PAPER
100
AcDbPolyline
 90
        5
 70
     0
 43
0.0
 10
2.671176148025425
 20
3.122243162068492
 10
2.746250468241949
 20
3.122243162068492
 10
2.746250468241949
 20
2.897020201418919
 10
2.671176148025425
 20
2.897020201418919
 10
2.671176148025425
 20
2.925623517421414
  0
LWPOLYLINE
  5
3FF
330
17
100
AcDbEntity
  8
PAPER
100
AcDbPolyline
 90
        2
 70
     0
 43
0.0
 10
2.671176148025425
 20
3.093639846065996
 10
2.671176148025425
 20
3.122243162068492
  0
LINE
  5
403
330
17
100
AcDbEntity
  8
PAPER
100
AcDbLine
 10
2.707775718568457
 20
2.925623517421414
 30
0.0
 11
2.7286549244412
 21
3.002433219559491
 31
0.0
  0
LINE
  5
404
330
17
100
AcDbEntity
  8
PAPER
100
AcDbLine
 10
1.681925630317411
 20
2.925623517421414
 30
0.0
 11
1.727597562613759
 21
3.093639846065996
 31
0.0
  0
LINE
  5
405
330
17
100
AcDbEntity
  8
PAPER
100
AcDbLine
 10
1.715387048206281
 20
2.925623517421414
 30
0.0
 11
1.761058980502629
 21
3.093639846065996
 31
0.0
  0
LINE
  5
406
330
17
100
AcDbEntity
  8
PAPER
100
AcDbLine
 10
1.745885990794244
 20
2.925623517421414
 30
0.0
 11
1.791557923090592
 21
3.093639846065996
 31
0.0
  0
LINE
  5
407
330
17
100
AcDbEntity
  8
PAPER
100
AcDbLine
 10
1.776384933382207
 20
2.925623517421414
 30
0.0
 11
1.822056865678555
 21
3.093639846065996
 31
0.0
  0
LINE
  5
408
330
17
100
AcDbEntity
  8
PAPER
100
AcDbLine
 10
2.681968920994027
 20
2.925623517421414
 30
0.0
 11
2.727640853290374
 21
3.093639846065996
 31
0.0
  0
LINE
  5
409
330
17
100
AcDbEntity
  8
PAPER
100
AcDbLine
 10
2.658508195926363
 20
2.925623517421414
 30
0.0
 11
2.704180128222711
 21
3.093639846065996
 31
0.0
  0
LINE
  5
40A
330
17
100
AcDbEntity
  8
PAPER
100
AcDbLine
 10
2.632701398351933
 20
2.925623517421414
 30
0.0
 11
2.67837333064828
 21
3.093639846065996
 31
0.0
  0
LINE
  5
40B
330
17
100
AcDbEntity
  8
PAPER
100
AcDbLine
 10
1.681925630317411
 20
3.035554373732806
 30
0.0
 11
1.697715022819937
 21
3.093639846065996
 31
0.0
  0
LINE
  5
40C
330
17
100
AcDbEntity
  8
PAPER
100
AcDbLine
 10
1.681925630317411
 20
3.093639846065996
 30
0.0
 11
1.681925630317411
 21
2.925623517421414
 31
0.0
  0
LINE
  5
40D
330
17
100
AcDbEntity
  8
PAPER
100
AcDbLine
 10
1.639380745678787
 20
3.093639846065996
 30
0.0
 11
1.639380745678787
 21
2.925623517421414
 31
0.0
  0
LINE
  5
40E
330
17
100
AcDbEntity
  8
PAPER
100
AcDbLine
 10
2.728654924441201
 20
3.093639846065996
 30
0.0
 11
1.639380745678787
 21
3.093639846065996
 31
0.0
  0
LINE
  5
40F
330
17
100
AcDbEntity
  8
PAPER
100
AcDbLine
 10
2.728654924441201
 20
2.925623517421414
 30
0.0
 11
1.639380745678787
 21
2.925623517421414
 31
0.0
  0
LINE
  5
410
330
17
100
AcDbEntity
  8
PAPER
100
AcDbLine
 10
2.73921225072165
 20
2.902443393607877
 30
0.0
 11
2.728654924441201
 21
2.902443393607877
 31
0.0
  0
LINE
  5
411
330
17
100
AcDbEntity
  8
PAPER
100
AcDbLine
 10
2.73921225072165
 20
3.116819969879533
 30
0.0
 11
2.728654924441201
 21
3.116819969879533
 31
0.0
  0
LINE
  5
412
330
17
100
AcDbEntity
  8
PAPER
100
AcDbLine
 10
2.728654924441201
 20
3.116819969879533
 30
0.0
 11
2.728654924441201
 21
2.902443393607877
 31
0.0
  0
LINE
  5
413
330
17
100
AcDbEntity
  8
PAPER
100
AcDbLine
 10
2.756807794522398
 20
3.035554373732806
 30
0.0
 11
2.772597187024925
 21
3.093639846065996
 31
0.0
  0
LINE
  5
414
330
17
100
AcDbEntity
  8
PAPER
100
AcDbLine
 10
3.707583562556919
 20
2.925623517421414
 30
0.0
 11
3.753255494853267
 21
3.093639846065996
 31
0.0
  0
LINE
  5
415
330
17
100
AcDbEntity
  8
PAPER
100
AcDbLine
 10
3.733390360131349
 20
2.925623517421414
 30
0.0
 11
3.779062292427698
 21
3.093639846065996
 31
0.0
  0
LINE
  5
416
330
17
100
AcDbEntity
  8
PAPER
100
AcDbLine
 10
3.756851085199013
 20
2.925623517421414
 30
0.0
 11
3.802523017495362
 21
3.093639846065996
 31
0.0
  0
LINE
  5
417
330
17
100
AcDbEntity
  8
PAPER
100
AcDbLine
 10
3.782657882773444
 20
2.925623517421414
 30
0.0
 11
3.803537088646187
 21
3.002433219559491
 31
0.0
  0
LINE
  5
418
330
17
100
AcDbEntity
  8
PAPER
100
AcDbLine
 10
2.851267097587194
 20
2.925623517421414
 30
0.0
 11
2.896939029883542
 21
3.093639846065996
 31
0.0
  0
LINE
  5
419
330
17
100
AcDbEntity
  8
PAPER
100
AcDbLine
 10
2.820768154999231
 20
2.925623517421414
 30
0.0
 11
2.866440087295579
 21
3.093639846065996
 31
0.0
  0
LINE
  5
41A
330
17
100
AcDbEntity
  8
PAPER
100
AcDbLine
 10
2.790269212411268
 20
2.925623517421414
 30
0.0
 11
2.835941144707616
 21
3.093639846065996
 31
0.0
  0
LINE
  5
41B
330
17
100
AcDbEntity
  8
PAPER
100
AcDbLine
 10
2.756807794522398
 20
2.925623517421414
 30
0.0
 11
2.802479726818746
 21
3.093639846065996
 31
0.0
  0
LINE
  5
41C
330
17
100
AcDbEntity
  8
PAPER
100
AcDbLine
 10
3.803537088646187
 20
3.093639846065996
 30
0.0
 11
3.803537088646188
 21
2.925623517421414
 31
0.0
  0
LINE
  5
41D
330
17
100
AcDbEntity
  8
PAPER
100
AcDbLine
 10
3.846081973284812
 20
3.093639846065996
 30
0.0
 11
3.846081973284812
 21
2.925623517421414
 31
0.0
  0
LINE
  5
41E
330
17
100
AcDbEntity
  8
PAPER
100
AcDbLine
 10
3.846081973284812
 20
3.028400261797837
 30
0.0
 11
4.23515985701913
 21
3.028400261797838
 31
0.0
  0
LINE
  5
41F
330
17
100
AcDbEntity
  8
PAPER
100
AcDbLine
 10
3.846081973284812
 20
2.990863101689574
 30
0.0
 11
4.23515985701913
 21
2.990863101689574
 31
0.0
  0
LINE
  5
420
330
17
100
AcDbEntity
  8
PAPER
100
AcDbLine
 10
2.756807794522398
 20
3.093639846065996
 30
0.0
 11
3.846081973284812
 21
3.093639846065996
 31
0.0
  0
LINE
  5
421
330
17
100
AcDbEntity
  8
PAPER
100
AcDbLine
 10
2.756807794522398
 20
2.925623517421414
 30
0.0
 11
3.846081973284812
 21
2.925623517421414
 31
0.0
  0
LINE
  5
422
330
17
100
AcDbEntity
  8
PAPER
100
AcDbLine
 10
2.756807794522398
 20
3.116819969879533
 30
0.0
 11
2.756807794522398
 21
2.902443393607877
 31
0.0
  0
LINE
  5
423
330
17
100
AcDbEntity
  8
PAPER
100
AcDbLine
 10
2.746250468241949
 20
3.116819969879533
 30
0.0
 11
2.756807794522398
 21
3.116819969879533
 31
0.0
  0
LINE
  5
424
330
17
100
AcDbEntity
  8
PAPER
100
AcDbLine
 10
2.746250468241949
 20
2.902443393607877
 30
0.0
 11
2.756807794522398
 21
2.902443393607877
 31
0.0
  0
LINE
  5
425
330
17
100
AcDbEntity
  8
PAPER
100
AcDbLine
 10
2.73921225072165
 20
3.122243162068492
 30
0.0
 11
2.73921225072165
 21
2.897020201418919
 31
0.0
  0
LINE
  5
426
330
17
100
AcDbEntity
  8
PAPER
100
AcDbLine
 10
4.474459252709301
 20
3.028400261797837
 30
0.0
 11
4.699682213358872
 21
3.028400261797837
 31
0.0
  0
LINE
  5
427
330
17
100
AcDbEntity
  8
PAPER
100
AcDbLine
 10
4.474459252709301
 20
2.990863101689574
 30
0.0
 11
4.699682213358872
 21
2.990863101689574
 31
0.0
  0
LINE
  5
428
330
17
100
AcDbEntity
  8
PAPER
100
AcDbLine
 10
4.699682213358871
 20
2.990863101689574
 30
0.0
 11
4.699682213358872
 21
3.028400261797837
 31
0.0
  0
LINE
  5
429
330
17
100
AcDbEntity
  8
PAPER
100
AcDbLine
 10
0.8176240474088503
 20
2.990863101689574
 30
0.0
 11
0.8176240474088503
 21
3.028400261797837
 31
0.0
  0
LINE
  5
42A
330
17
100
AcDbEntity
  8
PAPER
100
AcDbLine
 10
0.8176240474088503
 20
2.990863101689574
 30
0.0
 11
1.042847008058421
 21
2.990863101689574
 31
0.0
  0
LINE
  5
42B
330
17
100
AcDbEntity
  8
PAPER
100
AcDbLine
 10
0.8176240474088503
 20
3.028400261797837
 30
0.0
 11
1.042847008058421
 21
3.028400261797837
 31
0.0
  0
LINE
  5
42C
330
17
100
AcDbEntity
  8
PAPER
  6
CENTER
100
AcDbLine
 10
0.4154274327695598
 20
3.009631681743706
 30
0.0
 11
5.160486312275576
 21
3.009631681743706
 31
0.0
  0
LWPOLYLINE
  5
42D
330
17
100
AcDbEntity
  8
PAPER
100
AcDbPolyline
 90
        4
 70
     1
 43
0.0
 10
1.042847008058422
 20
2.837195352496377
 10
1.042847008058422
 20
3.182068010991033
 10
1.05692344309902
 20
3.182068010991033
 10
1.05692344309902
 20
2.837195352496377
  0
LWPOLYLINE
  5
433
330
17
100
AcDbEntity
  8
PAPER
100
AcDbPolyline
 90
        4
 70
     1
 43
0.0
 10
1.268069968707993
 20
2.916961817726433
 10
1.268069968707993
 20
3.102301545760977
 10
1.282146403748591
 20
3.102301545760977
 10
1.282146403748591
 20
2.916961817726433
  0
ARC
  5
439
330
17
100
AcDbEntity
  8
PAPER
100
AcDbCircle
 10
1.200033866011769
 20
3.541310363589631
 30
0.0
 40
0.4558450613793435
100
AcDbArc
 50
261.416378519886
 51
278.583621480114
  0
ARC
  5
43A
330
17
100
AcDbEntity
  8
PAPER
100
AcDbCircle
 10
1.200033866011769
 20
2.477952999897779
 30
0.0
 40
0.4558450613793435
100
AcDbArc
 50
81.41637851988601
 51
98.58362148011401
  0
LINE
  5
43B
330
17
100
AcDbEntity
  8
PAPER
100
AcDbLine
 10
1.05692344309902
 20
2.837195352496377
 30
0.0
 11
1.131997763315544
 21
2.928692180260266
 31
0.0
  0
LINE
  5
43C
330
17
100
AcDbEntity
  8
PAPER
100
AcDbLine
 10
1.131997763315544
 20
2.928692180260266
 30
0.0
 11
1.131997763315544
 21
3.090571183227145
 31
0.0
  0
LINE
  5
43D
330
17
100
AcDbEntity
  8
PAPER
100
AcDbLine
 10
1.131997763315544
 20
3.090571183227145
 30
0.0
 11
1.05692344309902
 21
3.182068010991033
 31
0.0
  0
LINE
  5
43E
330
17
100
AcDbEntity
  8
PAPER
100
AcDbLine
 10
4.385308497452177
 20
3.090571183227145
 30
0.0
 11
4.460382817668701
 21
3.182068010991033
 31
0.0
  0
LINE
  5
43F
330
17
100
AcDbEntity
  8
PAPER
100
AcDbLine
 10
4.385308497452177
 20
2.928692180260266
 30
0.0
 11
4.385308497452177
 21
3.090571183227145
 31
0.0
  0
LINE
  5
440
330
17
100
AcDbEntity
  8
PAPER
100
AcDbLine
 10
4.460382817668701
 20
2.837195352496377
 30
0.0
 11
4.385308497452177
 21
2.928692180260266
 31
0.0
  0
ARC
  5
441
330
17
100
AcDbEntity
  8
PAPER
100
AcDbCircle
 10
4.317272394755953
 20
2.477952999897779
 30
0.0
 40
0.4558450613793435
100
AcDbArc
 50
81.41637851988599
 51
98.583621480114
  0
ARC
  5
442
330
17
100
AcDbEntity
  8
PAPER
100
AcDbCircle
 10
4.317272394755953
 20
3.541310363589633
 30
0.0
 40
0.4558450613793435
100
AcDbArc
 50
261.4163785198861
 51
278.5836214801141
  0
LWPOLYLINE
  5
443
330
17
100
AcDbEntity
  8
PAPER
100
AcDbPolyline
 90
        4
 70
     1
 43
0.0
 10
4.249236292059729
 20
2.916961817726433
 10
4.249236292059729
 20
3.102301545760977
 10
4.23515985701913
 20
3.102301545760977
 10
4.23515985701913
 20
2.916961817726433
  0
LWPOLYLINE
  5
449
330
17
100
AcDbEntity
  8
PAPER
100
AcDbPolyline
 90
        4
 70
     1
 43
0.0
 10
4.4744592527093
 20
2.837195352496377
 10
4.4744592527093
 20
3.182068010991033
 10
4.460382817668701
 20
3.182068010991033
 10
4.460382817668701
 20
2.837195352496377
  0
LINE
  5
44F
330
17
100
AcDbEntity
  8
PAPER
100
AcDbLine
 10
1.282146403748591
 20
3.028400261797837
 30
0.0
 11
1.639380745678787
 21
3.028400261797837
 31
0.0
  0
LINE
  5
450
330
17
100
AcDbEntity
  8
PAPER
100
AcDbLine
 10
1.282146403748591
 20
2.990863101689575
 30
0.0
 11
1.639380745678787
 21
2.990863101689574
 31
0.0
  0
LINE
  5
451
330
17
100
AcDbEntity
  8
PAPER
100
AcDbLine
 10
4.453754888323054
 20
2.839818680585293
 30
0.0
 11
4.453754888323054
 21
2.639161240742938
 31
0.0
  0
LINE
  5
452
330
17
100
AcDbEntity
  8
PAPER
100
AcDbLine
 10
4.445794002872023
 20
2.839818680585293
 30
0.0
 11
4.445794002872023
 21
2.639161240742938
 31
0.0
  0
LINE
  5
453
330
17
100
AcDbEntity
  8
PAPER
100
AcDbLine
 10
1.070326215382146
 20
2.839818680585293
 30
0.0
 11
1.070326215382146
 21
2.571526037972599
 31
0.0
  0
LINE
  5
454
330
17
100
AcDbEntity
  8
PAPER
100
AcDbLine
 10
1.062365329931116
 20
2.839818680585293
 30
0.0
 11
1.062365329931116
 21
2.571526037972599
 31
0.0
  0
TEXT
  5
455
330
17
100
AcDbEntity
  8
PAPER
100
AcDbText
 10
3.442858900330885
 20
2.436344078973851
 30
0.0
 40
0.07
  1
10,000 CYCLE
  7
arial1
100
AcDbText
  0
TEXT
  5
456
330
17
100
AcDbEntity
  8
PAPER
100
AcDbText
 10
3.442858900330885
 20
2.300126593913574
 30
0.0
 40
0.07
  1
25,000 CYCLE
  7
arial1
100
AcDbText
  0
TEXT
  5
457
330
17
100
AcDbEntity
  8
PAPER
100
AcDbText
 10
3.442858900330885
 20
2.167167578585567
 30
0.0
 40
0.07
  1
50,000 CYCLE
  7
arial1
100
AcDbText
  0
TEXT
  5
458
330
17
100
AcDbEntity
  8
PAPER
100
AcDbText
 10
3.442858900330885
 20
2.030950093525291
 30
0.0
 40
0.07
  1
100,000 CYCLE
  7
arial1
100
AcDbText
  0
INSERT
  5
459
330
17
100
AcDbEntity
  8
PAPER
100
AcDbBlockReference
  2
RECT
 10
3.292132742454216
 20
2.424244481809908
 30
0.0
 41
0.09375
 42
0.09375
 43
0.09375
  0
INSERT
  5
45A
330
17
100
AcDbEntity
  8
PAPER
100
AcDbBlockReference
  2
RECT
 10
3.292132742454216
 20
2.289172241671056
 30
0.0
 41
0.09375
 42
0.09375
 43
0.09375
  0
INSERT
  5
45B
330
17
100
AcDbEntity
  8
PAPER
100
AcDbBlockReference
  2
RECT
 10
3.292132742454216
 20
2.155331779654906
 30
0.0
 41
0.09375
 42
0.09375
 43
0.09375
  0
INSERT
  5
45C
330
17
100
AcDbEntity
  8
PAPER
100
AcDbBlockReference
  2
RECT
 10
3.292132742454216
 20
2.01823284790649
 30
0.0
 41
0.09375
 42
0.09375
 43
0.09375
  0
LINE
  5
461
330
17
100
AcDbEntity
  8
PAPER
100
AcDbLine
 10
4.93469624236024
 20
3.028104574312703
 30
0.0
 11
4.93469624236024
 21
2.99115878917471
 31
0.0
  0
LINE
  5
462
330
17
100
AcDbEntity
  8
PAPER
100
AcDbLine
 10
4.73351090715276
 20
2.99115878917471
 30
0.0
 11
4.93469624236024
 21
2.99115878917471
 31
0.0
  0
LINE
  5
463
330
17
100
AcDbEntity
  8
PAPER
100
AcDbLine
 10
4.73351090715276
 20
3.028104574312703
 30
0.0
 11
4.93469624236024
 21
3.028104574312703
 31
0.0
  0
LINE
  5
464
330
17
100
AcDbEntity
  8
PAPER
100
AcDbLine
 10
4.73351090715276
 20
3.067911674679991
 30
0.0
 11
4.699411940763374
 21
3.067911674679991
 31
0.0
  0
LINE
  5
465
330
17
100
AcDbEntity
  8
PAPER
100
AcDbLine
 10
4.716461423958067
 20
2.951351688807419
 30
0.0
 11
4.716461423958067
 21
2.814955823249863
 31
0.0
  0
LINE
  5
466
330
17
100
AcDbEntity
  8
PAPER
100
AcDbLine
 10
5.176797470214816
 20
2.774891109207176
 30
0.0
 11
5.176797470214816
 21
2.883153756028636
 31
0.0
  0
LINE
  5
467
330
17
100
AcDbEntity
  8
PAPER
100
AcDbLine
 10
4.801708839931544
 20
2.75272363812438
 30
0.0
 11
4.801708839931544
 21
2.43986719296658
 31
0.0
  0
LINE
  5
468
330
17
100
AcDbEntity
  8
PAPER
100
AcDbLine
 10
5.142698503825419
 20
2.75272363812438
 30
0.0
 11
5.23740187070728
 21
2.75272363812438
 31
0.0
  0
LINE
  5
469
330
17
100
AcDbEntity
  8
PAPER
100
AcDbLine
 10
5.142698503825419
 20
2.774891109207176
 30
0.0
 11
5.23740187070728
 21
2.774891109207176
 31
0.0
  0
LINE
  5
46A
330
17
100
AcDbEntity
  8
PAPER
100
AcDbLine
 10
4.73351090715276
 20
2.75272363812438
 30
0.0
 11
4.83580780632092
 21
2.75272363812438
 31
0.0
  0
LINE
  5
46B
330
17
100
AcDbEntity
  8
PAPER
100
AcDbLine
 10
4.73351090715276
 20
2.774891109207176
 30
0.0
 11
4.83580780632092
 21
2.774891109207176
 31
0.0
  0
LINE
  5
46C
330
17
100
AcDbEntity
  8
PAPER
100
AcDbLine
 10
5.14269850382543
 20
2.883153756028636
 30
0.0
 11
5.14269850382543
 21
2.43986719296658
 31
0.0
  0
LINE
  5
46D
330
17
100
AcDbEntity
  8
PAPER
100
AcDbLine
 10
4.83580780632093
 20
2.883153756028636
 30
0.0
 11
4.83580780632093
 21
2.43986719296658
 31
0.0
  0
LINE
  5
46E
330
17
100
AcDbEntity
  8
PAPER
100
AcDbLine
 10
5.176797470214816
 20
2.883153756028636
 30
0.0
 11
4.801708839931544
 21
2.883153756028636
 31
0.0
  0
LINE
  5
46F
330
17
100
AcDbEntity
  8
PAPER
100
AcDbLine
 10
5.176797470214816
 20
2.43986719296658
 30
0.0
 11
5.176797470214816
 21
2.75272363812438
 31
0.0
  0
LINE
  5
470
330
17
100
AcDbEntity
  8
PAPER
100
AcDbLine
 10
4.801708839931544
 20
2.43986719296658
 30
0.0
 11
5.176797470214816
 21
2.43986719296658
 31
0.0
  0
LINE
  5
471
330
17
100
AcDbEntity
  8
PAPER
100
AcDbLine
 10
4.801708839931544
 20
2.883153756028636
 30
0.0
 11
4.801708839931544
 21
2.774891109207176
 31
0.0
  0
LINE
  5
472
330
17
100
AcDbEntity
  8
PAPER
100
AcDbLine
 10
4.73351090715276
 20
2.814955823249863
 30
0.0
 11
4.699411940763374
 21
2.814955823249863
 31
0.0
  0
LINE
  5
473
330
17
100
AcDbEntity
  8
PAPER
100
AcDbLine
 10
4.73351090715276
 20
2.712658924081693
 30
0.0
 11
4.73351090715276
 21
2.814955823249863
 31
0.0
  0
LINE
  5
474
330
17
100
AcDbEntity
  8
PAPER
100
AcDbLine
 10
4.699411940763374
 20
2.712658924081693
 30
0.0
 11
4.73351090715276
 21
2.712658924081693
 31
0.0
  0
LINE
  5
475
330
17
100
AcDbEntity
  8
PAPER
100
AcDbLine
 10
4.699411940763374
 20
2.814955823249863
 30
0.0
 11
4.699411940763374
 21
2.712658924081693
 31
0.0
  0
LINE
  5
476
330
17
100
AcDbEntity
  8
PAPER
100
AcDbLine
 10
4.73351090715276
 20
2.951351688807419
 30
0.0
 11
4.73351090715276
 21
3.067911674679991
 31
0.0
  0
LINE
  5
477
330
17
100
AcDbEntity
  8
PAPER
100
AcDbLine
 10
4.699411940763374
 20
2.951351688807419
 30
0.0
 11
4.73351090715276
 21
2.951351688807419
 31
0.0
  0
LINE
  5
478
330
17
100
AcDbEntity
  8
PAPER
100
AcDbLine
 10
4.699411940763374
 20
3.067911674679991
 30
0.0
 11
4.699411940763374
 21
2.951351688807419
 31
0.0
  0
LINE
  5
479
330
17
100
AcDbEntity
  8
PAPER
100
AcDbLine
 10
5.23740187070728
 20
2.774891109207176
 30
0.0
 11
5.23740187070728
 21
2.75272363812438
 31
0.0
  0
SOLID
  5
47A
330
17
100
AcDbEntity
  8
PAPER
100
AcDbTrace
 10
5.135276380038316
 20
2.753804476301192
 30
0.0
 11
5.119554522751231
 21
2.771045927744995
 31
0.0
 12
5.075691097063367
 22
2.71525963016184
 32
0.0
 13
5.075691097063367
 23
2.71525963016184
 33
0.0
  0
LINE
  5
47B
330
17
100
AcDbEntity
  8
PAPER
100
AcDbLine
 10
5.127415451394774
 20
2.762425202023094
 30
0.0
 11
5.408018851851121
 21
3.018297315262793
 31
0.0
  0
LINE
  5
47C
330
17
100
AcDbEntity
  8
PAPER
100
AcDbLine
 10
5.408018851851121
 20
3.018297315262793
 30
0.0
 11
5.478018851851121
 21
3.018297315262793
 31
0.0
  0
TEXT
  5
47D
330
17
100
AcDbEntity
  8
PAPER
100
AcDbText
 10
5.548018851851121
 20
2.983297315262793
 30
0.0
 40
0.07
  1
%%uOPERATOR:
  7
ARIAL2
100
AcDbText
  0
TEXT
  5
47E
330
17
100
AcDbEntity
  8
PAPER
100
AcDbText
 10
5.694737121613778
 20
2.845598419452572
 30
0.0
 40
0.07
  1
JACKSHAFT
  7
arial1
100
AcDbText
  0
TEXT
  5
47F
330
17
100
AcDbEntity
  8
PAPER
100
AcDbText
 10
5.694737121613778
 20
2.70286399492776
 30
0.0
 40
0.07
  1
CHAIN HOIST
  7
arial1
100
AcDbText
  0
INSERT
  5
480
330
17
100
AcDbEntity
  8
PAPER
100
AcDbBlockReference
  2
RECT
 10
5.544761089864399
 20
2.833775240505377
 30
0.0
 41
0.09375
 42
0.09375
 43
0.09375
  0
INSERT
  5
481
330
17
100
AcDbEntity
  8
PAPER
100
AcDbBlockReference
  2
RECT
 10
5.544761089864399
 20
2.687144102553302
 30
0.0
 41
0.09375
 42
0.09375
 43
0.09375
  0
INSERT
  5
482
330
17
100
AcDbEntity
  8
PAPER
100
AcDbBlockReference
  2
RECT
 10
5.544761089864399
 20
2.540512964601228
 30
0.0
 41
0.09375
 42
0.09375
 43
0.09375
  0
TEXT
  5
483
330
17
100
AcDbEntity
  8
PAPER
100
AcDbText
 10
5.694737121613778
 20
2.556232856975686
 30
0.0
 40
0.07
  1
BY OTHERS
  7
arial1
100
AcDbText
  0
TEXT
  5
484
330
17
100
AcDbEntity
  8
PAPER
100
AcDbText
 10
0.5217529917841392
 20
7.883898026813499
 30
0.0
 40
0.07
  1
BREAKAWAY 
  7
arial1
100
AcDbText
  0
TEXT
  5
485
330
17
100
AcDbEntity
  8
PAPER
100
AcDbText
 10
0.5217529917841392
 20
7.742613249759417
 30
0.0
 40
0.07
  1
STRAIGHT INCLINE (OPTIONAL) 
  7
arial1
100
AcDbText
  0
INSERT
  5
486
330
17
100
AcDbEntity
  8
PAPER
100
AcDbBlockReference
  2
RECT
 10
0.3583906971413434
 20
7.729622466674848
 30
0.0
 41
0.09375
 42
0.09375
 43
0.09375
  0
INSERT
  5
487
330
17
100
AcDbEntity
  8
PAPER
100
AcDbBlockReference
  2
RECT
 10
0.3583906971413434
 20
7.876549895534203
 30
0.0
 41
0.09375
 42
0.09375
 43
0.09375
  0
POINT
  5
48A
330
17
100
AcDbEntity
  8
PAPER
100
AcDbPoint
 10
8.988461018901825
 20
5.937860362777381
 30
0.0
  0
POINT
  5
48B
330
17
100
AcDbEntity
  8
PAPER
100
AcDbPoint
 10
8.988461018901825
 20
5.888658888585062
 30
0.0
  0
POINT
  5
48C
330
17
100
AcDbEntity
  8
PAPER
100
AcDbPoint
 10
9.066388051579007
 20
5.148955008322678
 30
0.0
  0
POINT
  5
48D
330
17
100
AcDbEntity
  8
PAPER
100
AcDbPoint
 10
9.082665900493063
 20
4.353582916742756
 30
0.0
  0
POINT
  5
48E
330
17
100
AcDbEntity
  8
PAPER
100
AcDbPoint
 10
9.082665900493063
 20
4.294375694317628
 30
0.0
  0
POINT
  5
48F
330
17
100
AcDbEntity
  8
PAPER
100
AcDbPoint
 10
9.094707434723449
 20
3.623360506832845
 30
0.0
  0
POINT
  5
490
330
17
100
AcDbEntity
  8
PAPER
100
AcDbPoint
 10
9.094707434723449
 20
3.682567729257973
 30
0.0
  0
POINT
  5
491
330
17
100
AcDbEntity
  8
PAPER
100
AcDbPoint
 10
9.105354105735518
 20
2.735252170455929
 30
0.0
  0
POINT
  5
492
330
17
100
AcDbEntity
  8
PAPER
100
AcDbPoint
 10
9.105354105735518
 20
2.676044948030801
 30
0.0
  0
POINT
  5
493
330
17
100
AcDbEntity
  8
PAPER
100
AcDbPoint
 10
9.107481341617903
 20
1.787936611653883
 30
0.0
  0
POINT
  5
494
330
17
100
AcDbEntity
  8
PAPER
100
AcDbPoint
 10
9.107481341617903
 20
1.728729389228756
 30
0.0
  0
POINT
  5
495
330
17
100
AcDbEntity
  8
PAPER
100
AcDbPoint
 10
9.213932823717687
 20
1.728729389228756
 30
0.0
  0
POINT
  5
496
330
17
100
AcDbEntity
  8
PAPER
100
AcDbPoint
 10
9.213932823717687
 20
1.787936611653883
 30
0.0
  0
POINT
  5
497
330
17
100
AcDbEntity
  8
PAPER
100
AcDbPoint
 10
9.211805587835296
 20
2.676044948030801
 30
0.0
  0
POINT
  5
498
330
17
100
AcDbEntity
  8
PAPER
100
AcDbPoint
 10
9.211805587835296
 20
2.735252170455929
 30
0.0
  0
POINT
  5
499
330
17
100
AcDbEntity
  8
PAPER
100
AcDbPoint
 10
9.217094767436968
 20
3.623360506832845
 30
0.0
  0
POINT
  5
49A
330
17
100
AcDbEntity
  8
PAPER
100
AcDbPoint
 10
9.217094767436968
 20
3.682567729257973
 30
0.0
  0
POINT
  5
49B
330
17
100
AcDbEntity
  8
PAPER
100
AcDbPoint
 10
9.218388038674465
 20
4.294375694317628
 30
0.0
  0
POINT
  5
49C
330
17
100
AcDbEntity
  8
PAPER
100
AcDbPoint
 10
9.218388038674465
 20
4.353582916742756
 30
0.0
  0
POINT
  5
49D
330
17
100
AcDbEntity
  8
PAPER
100
AcDbPoint
 10
9.21719042733612
 20
5.148955008322678
 30
0.0
  0
POINT
  5
49E
330
17
100
AcDbEntity
  8
PAPER
100
AcDbPoint
 10
9.067293306878392
 20
5.208091262001993
 30
0.0
  0
POINT
  5
49F
330
17
100
AcDbEntity
  8
PAPER
100
AcDbPoint
 10
9.21719042733612
 20
5.208162230747806
 30
0.0
  0
POINT
  5
4A0
330
17
100
AcDbEntity
  8
PAPER
100
AcDbPoint
 10
9.211051608951654
 20
5.888658888585062
 30
0.0
  0
POINT
  5
4A1
330
17
100
AcDbEntity
  8
PAPER
100
AcDbPoint
 10
9.211051608951654
 20
5.937860362777381
 30
0.0
  0
POINT
  5
4A2
330
17
100
AcDbEntity
  8
PAPER
100
AcDbPoint
 10
8.620683205889347
 20
6.382252937087264
 30
0.0
  0
POINT
  5
4A3
330
17
100
AcDbEntity
  8
PAPER
100
AcDbPoint
 10
9.211051608951654
 20
6.357955912794762
 30
0.0
  0
POINT
  5
4A4
330
17
100
AcDbEntity
  8
PAPER
100
AcDbPoint
 10
9.211051608951654
 20
6.413110157938744
 30
0.0
  0
POINT
  5
4A5
330
17
100
AcDbEntity
  8
PAPER
100
AcDbPoint
 10
9.211051608951654
 20
7.1285360382315
 30
0.0
  0
POINT
  5
4A6
330
17
100
AcDbEntity
  8
PAPER
100
AcDbPoint
 10
9.210201284091274
 20
7.168383158071205
 30
0.0
  0
POINT
  5
4A7
330
17
100
AcDbEntity
  8
PAPER
100
AcDbPoint
 10
8.538774337048197
 20
7.149960369069877
 30
0.0
  0
POINT
  5
4A8
330
17
100
AcDbEntity
  8
PAPER
100
AcDbPoint
 10
6.269525066260307
 20
8.178794406664202
 30
0.0
  0
POINT
  5
4A9
330
17
100
AcDbEntity
  8
PAPER
100
AcDbPoint
 10
6.971820270671937
 20
8.178794406664202
 30
0.0
  0
POINT
  5
4AA
330
17
100
AcDbEntity
  8
PAPER
100
AcDbPoint
 10
7.69175020048069
 20
8.178794406664202
 30
0.0
  0
POINT
  5
4AB
330
17
100
AcDbEntity
  8
PAPER
100
AcDbPoint
 10
8.409514462258217
 20
8.178794406664202
 30
0.0
  0
POINT
  5
4AC
330
17
100
AcDbEntity
  8
PAPER
100
AcDbPoint
 10
9.121709863384024
 20
8.178794406664202
 30
0.0
  0
POINT
  5
4AD
330
17
100
AcDbEntity
  8
PAPER
100
AcDbPoint
 10
6.619744525024165
 20
7.782444070176542
 30
0.0
  0
POINT
  5
4AE
330
17
100
AcDbEntity
  8
PAPER
100
AcDbPoint
 10
7.336890024507059
 20
7.782444070176542
 30
0.0
  0
POINT
  5
4AF
330
17
100
AcDbEntity
  8
PAPER
100
AcDbPoint
 10
8.062079433820214
 20
7.782444070176542
 30
0.0
  0
POINT
  5
4B0
330
17
100
AcDbEntity
  8
PAPER
100
AcDbPoint
 10
8.78541255624947
 20
7.782444070176542
 30
0.0
  0
LINE
  5
4B1
330
17
100
AcDbEntity
  8
PAPER
100
AcDbLine
 10
9.361382223193746
 20
8.217859631981692
 30
0.0
 11
6.079047289700894
 21
8.217859631981692
 31
0.0
  0
LINE
  5
4B2
330
17
100
AcDbEntity
  8
PAPER
100
AcDbLine
 10
9.361382223193746
 20
8.138916668748187
 30
0.0
 11
6.150243993640993
 21
8.138916668748187
 31
0.0
  0
LINE
  5
4B3
330
17
100
AcDbEntity
  8
PAPER
100
AcDbLine
 10
8.981772816780235
 20
7.744201852580671
 30
0.0
 11
6.302350018244788
 21
7.744201852580671
 31
0.0
  0
LINE
  5
4B4
330
17
100
AcDbEntity
  8
PAPER
100
AcDbLine
 10
8.981772816780235
 20
7.823144815814174
 30
0.0
 11
6.302350018244788
 21
7.823144815814174
 31
0.0
  0
LINE
  5
4B5
330
17
100
AcDbEntity
  8
PAPER
100
AcDbLine
 10
6.610187703654945
 20
7.855844061839359
 30
0.0
 11
6.893260310563727
 21
8.138916668748187
 31
0.0
  0
LINE
  5
4B6
330
17
100
AcDbEntity
  8
PAPER
100
AcDbLine
 10
6.689130666888448
 20
7.823144815814174
 30
0.0
 11
6.972203273797231
 21
8.106217422722933
 31
0.0
  0
LINE
  5
4B7
330
17
100
AcDbEntity
  8
PAPER
100
AcDbLine
 10
6.531244740421449
 20
7.823144815814174
 30
0.0
 11
6.215472887487434
 21
8.138916668748187
 31
0.0
  0
LINE
  5
4B8
330
17
100
AcDbEntity
  8
PAPER
100
AcDbLine
 10
6.642886949680182
 20
7.823144815814174
 30
0.0
 11
6.327115096746167
 21
8.138916668748187
 31
0.0
  0
LINE
  5
4B9
330
17
100
AcDbEntity
  8
PAPER
100
AcDbLine
 10
9.557631956280605
 20
1.632517652787923
 30
0.0
 11
9.557631956280605
 21
5.421779887996104
 31
0.0
  0
LINE
  5
4BA
330
17
100
AcDbEntity
  8
PAPER
100
AcDbLine
 10
9.24186010334659
 20
1.632517652787923
 30
0.0
 11
9.24186010334659
 21
5.421779887996104
 31
0.0
  0
LINE
  5
4BB
330
17
100
AcDbEntity
  8
PAPER
100
AcDbLine
 10
9.557631956280605
 20
5.421779887996104
 30
0.0
 11
9.24186010334659
 21
5.421779887996104
 31
0.0
  0
LINE
  5
4BC
330
17
100
AcDbEntity
  8
PAPER
100
AcDbLine
 10
9.557631956280605
 20
5.421779887996104
 30
0.0
 11
9.557631956280605
 21
6.103434274104117
 31
0.0
  0
LINE
  5
4BD
330
17
100
AcDbEntity
  8
PAPER
100
AcDbLine
 10
9.24186010334659
 20
6.208155222491022
 30
0.0
 11
9.24186010334659
 21
8.138916668748187
 31
0.0
  0
LINE
  5
4BE
330
17
100
AcDbEntity
  8
PAPER
100
AcDbLine
 10
9.24186010334659
 20
5.421779887996104
 30
0.0
 11
9.24186010334659
 21
6.103434274104117
 31
0.0
  0
LINE
  5
4BF
330
17
100
AcDbEntity
  8
PAPER
100
AcDbLine
 10
9.054039000180576
 20
1.663371457965819
 30
0.0
 11
9.017447632586611
 21
5.176142746986696
 31
0.0
  0
LINE
  5
4C0
330
17
100
AcDbEntity
  8
PAPER
100
AcDbLine
 10
9.08364100542513
 20
1.663679812187112
 30
0.0
 11
9.047049637831161
 21
5.176451101207987
 31
0.0
  0
LINE
  5
4C1
330
17
100
AcDbEntity
  8
PAPER
100
AcDbLine
 10
9.106253648320281
 20
5.177067809650687
 30
0.0
 11
9.017447632586611
 21
5.176142746986696
 31
0.0
  0
LINE
  5
4C2
330
17
100
AcDbEntity
  8
PAPER
100
AcDbLine
 10
9.142845015914247
 20
1.664296520629696
 30
0.0
 11
9.054039000180576
 21
1.663371457965819
 31
0.0
  0
LINE
  5
4C3
330
17
100
AcDbEntity
  8
PAPER
100
AcDbLine
 10
9.24186010334659
 20
1.632517652787923
 30
0.0
 11
9.24186010334659
 21
5.77702322254687
 31
0.0
  0
LINE
  5
4C4
330
17
100
AcDbEntity
  8
PAPER
100
AcDbLine
 10
9.177718945719368
 20
1.632517652787923
 30
0.0
 11
9.177718945719368
 21
1.70899364842038
 31
0.0
  0
LINE
  5
4C5
330
17
100
AcDbEntity
  8
PAPER
100
AcDbLine
 10
9.24186010334659
 20
1.632517652787923
 30
0.0
 11
9.177718945719368
 21
1.632517652787923
 31
0.0
  0
LINE
  5
4C6
330
17
100
AcDbEntity
  8
PAPER
100
AcDbLine
 10
9.114626035321318
 20
4.373318657551132
 30
0.0
 11
9.234459200543449
 21
4.373318657551132
 31
0.0
  0
LINE
  5
4C7
330
17
100
AcDbEntity
  8
PAPER
100
AcDbLine
 10
9.115653938488421
 20
4.274639953509252
 30
0.0
 11
9.234459200543449
 21
4.274639953509252
 31
0.0
  0
LINE
  5
4C8
330
17
100
AcDbEntity
  8
PAPER
100
AcDbLine
 10
9.234459200543449
 20
4.373318657551132
 30
0.0
 11
9.234459200543449
 21
4.274639953509252
 31
0.0
  0
LINE
  5
4C9
330
17
100
AcDbEntity
  8
PAPER
100
AcDbLine
 10
9.234459200543449
 20
5.227897971556181
 30
0.0
 11
9.234459200543449
 21
5.129219267514302
 31
0.0
  0
LINE
  5
4CA
330
17
100
AcDbEntity
  8
PAPER
100
AcDbLine
 10
9.106752070634199
 20
5.129219267514302
 30
0.0
 11
9.234459200543449
 21
5.129219267514302
 31
0.0
  0
LINE
  5
4CB
330
17
100
AcDbEntity
  8
PAPER
100
AcDbLine
 10
9.100756516405187
 20
5.227827002810368
 30
0.0
 11
9.234459200543449
 21
5.227897971556181
 31
0.0
  0
LINE
  5
4CC
330
17
100
AcDbEntity
  8
PAPER
100
AcDbLine
 10
9.234459200543449
 20
3.702303470066349
 30
0.0
 11
9.234459200543449
 21
3.60362476602447
 31
0.0
  0
LINE
  5
4CD
330
17
100
AcDbEntity
  8
PAPER
100
AcDbLine
 10
9.122643680024721
 20
3.60362476602447
 30
0.0
 11
9.234459200543449
 21
3.60362476602447
 31
0.0
  0
LINE
  5
4CE
330
17
100
AcDbEntity
  8
PAPER
100
AcDbLine
 10
9.121615776857618
 20
3.702303470066349
 30
0.0
 11
9.234459200543449
 21
3.702303470066349
 31
0.0
  0
LINE
  5
4CF
330
17
100
AcDbEntity
  8
PAPER
100
AcDbLine
 10
9.234459200543449
 20
2.754987911264304
 30
0.0
 11
9.234459200543449
 21
2.656309207222425
 31
0.0
  0
LINE
  5
4D0
330
17
100
AcDbEntity
  8
PAPER
100
AcDbLine
 10
9.132511550428908
 20
2.656309207222425
 30
0.0
 11
9.234459200543449
 21
2.656309207222425
 31
0.0
  0
LINE
  5
4D1
330
17
100
AcDbEntity
  8
PAPER
100
AcDbLine
 10
9.131483647261806
 20
2.754987911264304
 30
0.0
 11
9.234459200543449
 21
2.754987911264304
 31
0.0
  0
LINE
  5
4D2
330
17
100
AcDbEntity
  8
PAPER
100
AcDbLine
 10
9.234459200543449
 20
1.80767235246226
 30
0.0
 11
9.234459200543449
 21
1.70899364842038
 31
0.0
  0
LINE
  5
4D3
330
17
100
AcDbEntity
  8
PAPER
100
AcDbLine
 10
9.142379420833096
 20
1.70899364842038
 30
0.0
 11
9.234459200543449
 21
1.70899364842038
 31
0.0
  0
LINE
  5
4D4
330
17
100
AcDbEntity
  8
PAPER
100
AcDbLine
 10
9.14135151766599
 20
1.80767235246226
 30
0.0
 11
9.234459200543449
 21
1.80767235246226
 31
0.0
  0
LINE
  5
4D5
330
17
100
AcDbEntity
  8
PAPER
100
AcDbLine
 10
9.177718945719368
 20
5.227897971556181
 30
0.0
 11
9.177718945719368
 21
5.77702322254687
 31
0.0
  0
LINE
  5
4D6
330
17
100
AcDbEntity
  8
PAPER
100
AcDbLine
 10
9.177718945719368
 20
4.373318657551132
 30
0.0
 11
9.177718945719368
 21
5.129219267514302
 31
0.0
  0
LINE
  5
4D7
330
17
100
AcDbEntity
  8
PAPER
100
AcDbLine
 10
9.177718945719368
 20
3.702303470066349
 30
0.0
 11
9.177718945719368
 21
4.274639953509252
 31
0.0
  0
LINE
  5
4D8
330
17
100
AcDbEntity
  8
PAPER
100
AcDbLine
 10
9.177718945719368
 20
2.754987911264304
 30
0.0
 11
9.177718945719368
 21
3.60362476602447
 31
0.0
  0
LINE
  5
4D9
330
17
100
AcDbEntity
  8
PAPER
100
AcDbLine
 10
9.177718945719368
 20
1.80767235246226
 30
0.0
 11
9.177718945719368
 21
2.656309207222425
 31
0.0
  0
LINE
  5
4DA
330
17
100
AcDbEntity
  8
PAPER
100
AcDbLine
 10
9.24186010334659
 20
5.77702322254687
 30
0.0
 11
9.177718945719368
 21
5.77702322254687
 31
0.0
  0
LINE
  5
4DB
330
17
100
AcDbEntity
  8
PAPER
100
AcDbLine
 10
9.142845015914247
 20
1.664296520629696
 30
0.0
 11
9.106253648320281
 21
5.177067809650687
 31
0.0
  0
LINE
  5
4DC
330
17
100
AcDbEntity
  8
PAPER
100
AcDbLine
 10
9.24186010334659
 20
5.77702322254687
 30
0.0
 11
9.24186010334659
 21
6.103434274104117
 31
0.0
  0
LINE
  5
4DD
330
17
100
AcDbEntity
  8
PAPER
100
AcDbLine
 10
9.177718945719368
 20
5.77702322254687
 30
0.0
 11
9.177718945719368
 21
5.863367088583515
 31
0.0
  0
LINE
  5
4DE
330
17
100
AcDbEntity
  8
PAPER
100
AcDbLine
 10
9.24186010334659
 20
5.77702322254687
 30
0.0
 11
9.177718945719368
 21
5.77702322254687
 31
0.0
  0
LINE
  5
4DF
330
17
100
AcDbEntity
  8
PAPER
100
AcDbLine
 10
9.234459200543449
 20
5.863367088583515
 30
0.0
 11
9.234459200543449
 21
5.962045792625395
 31
0.0
  0
LINE
  5
4E0
330
17
100
AcDbEntity
  8
PAPER
100
AcDbLine
 10
9.234459200543449
 20
5.962045792625395
 30
0.0
 11
9.020595366823574
 21
5.962045792625395
 31
0.0
  0
LINE
  5
4E1
330
17
100
AcDbEntity
  8
PAPER
100
AcDbLine
 10
9.234459200543449
 20
5.863367088583515
 30
0.0
 11
9.032285786763246
 21
5.863367088583515
 31
0.0
  0
LINE
  5
4E2
330
17
100
AcDbEntity
  8
PAPER
100
AcDbLine
 10
9.234459200543449
 20
6.335861060724369
 30
0.0
 11
8.655562004207439
 21
6.335861060724369
 31
0.0
  0
LINE
  5
4E3
330
17
100
AcDbEntity
  8
PAPER
100
AcDbLine
 10
9.234459200543449
 20
6.434539764766249
 30
0.0
 11
8.643871584267769
 21
6.434539764766249
 31
0.0
  0
LINE
  5
4E4
330
17
100
AcDbEntity
  8
PAPER
100
AcDbLine
 10
9.234459200543449
 20
6.335861060724369
 30
0.0
 11
9.234459200543449
 21
6.434539764766249
 31
0.0
  0
LINE
  5
4E5
330
17
100
AcDbEntity
  8
PAPER
100
AcDbLine
 10
9.234459200543449
 20
7.110488887453126
 30
0.0
 11
8.563792207681046
 21
7.110488887453126
 31
0.0
  0
LINE
  5
4E6
330
17
100
AcDbEntity
  8
PAPER
100
AcDbLine
 10
9.234459200543449
 20
7.189431850686629
 30
0.0
 11
8.554439871729309
 21
7.189431850686629
 31
0.0
  0
LINE
  5
4E7
330
17
100
AcDbEntity
  8
PAPER
100
AcDbLine
 10
9.234459200543449
 20
7.189431850686629
 30
0.0
 11
9.234459200543449
 21
7.110488887453126
 31
0.0
  0
LINE
  5
4E8
330
17
100
AcDbEntity
  8
PAPER
100
AcDbLine
 10
9.105641719366232
 20
5.186591059220213
 30
0.0
 11
9.003845139516005
 21
6.103434274104117
 31
0.0
  0
LINE
  5
4E9
330
17
100
AcDbEntity
  8
PAPER
100
AcDbLine
 10
9.048305514540837
 20
5.179798465836968
 30
0.0
 11
8.944223877218817
 21
6.103434274104117
 31
0.0
  0
POINT
  5
4EA
330
17
100
AcDbEntity
  8
PAPER
100
AcDbPoint
 10
9.24186010334659
 20
5.77702322254687
 30
0.0
  0
POINT
  5
4EB
330
17
100
AcDbEntity
  8
PAPER
100
AcDbPoint
 10
9.24186010334659
 20
5.77702322254687
 30
0.0
  0
LINE
  5
4EC
330
17
100
AcDbEntity
  8
PAPER
100
AcDbLine
 10
8.493523995701611
 20
7.703622079353419
 30
0.0
 11
8.405329908922009
 21
7.693173767119652
 31
0.0
  0
LINE
  5
4ED
330
17
100
AcDbEntity
  8
PAPER
100
AcDbLine
 10
9.177718945719368
 20
7.189431850686629
 30
0.0
 11
9.177718945719368
 21
7.214101526697099
 31
0.0
  0
LINE
  5
4EE
330
17
100
AcDbEntity
  8
PAPER
100
AcDbLine
 10
9.177718945719368
 20
6.434539764766249
 30
0.0
 11
9.177718945719368
 21
7.110488887453126
 31
0.0
  0
LINE
  5
4EF
330
17
100
AcDbEntity
  8
PAPER
100
AcDbLine
 10
9.177718945719368
 20
5.962045792625395
 30
0.0
 11
9.177718945719368
 21
6.103434274104117
 31
0.0
  0
LINE
  5
4F0
330
17
100
AcDbEntity
  8
PAPER
100
AcDbLine
 10
9.017447632586611
 20
5.176142746986696
 30
0.0
 11
8.914413246070216
 21
6.103434274104117
 31
0.0
  0
LINE
  5
4F1
330
17
100
AcDbEntity
  8
PAPER
100
AcDbLine
 10
9.017447632586611
 20
5.176142746986696
 30
0.0
 11
9.105641719366232
 21
5.186591059220213
 31
0.0
  0
LINE
  5
4F2
330
17
100
AcDbEntity
  8
PAPER
100
AcDbLine
 10
9.557631956280605
 20
6.208155222491022
 30
0.0
 11
9.557631956280605
 21
8.260767524281037
 31
0.0
  0
LINE
  5
4F3
330
17
100
AcDbEntity
  8
PAPER
100
AcDbLine
 10
9.557631956280605
 20
6.36456250335567
 30
0.0
 11
9.24186010334659
 21
6.680334356289686
 31
0.0
  0
LINE
  5
4F4
330
17
100
AcDbEntity
  8
PAPER
100
AcDbLine
 10
9.557631956280605
 20
6.532025817243811
 30
0.0
 11
9.24186010334659
 21
6.847797670177826
 31
0.0
  0
LINE
  5
4F5
330
17
100
AcDbEntity
  8
PAPER
100
AcDbLine
 10
9.557631956280605
 20
6.699489131131953
 30
0.0
 11
9.24186010334659
 21
7.015260984065967
 31
0.0
  0
LINE
  5
4F6
330
17
100
AcDbEntity
  8
PAPER
100
AcDbLine
 10
9.557631956280605
 20
6.866952445020022
 30
0.0
 11
9.24186010334659
 21
7.182724297954036
 31
0.0
  0
LINE
  5
4F7
330
17
100
AcDbEntity
  8
PAPER
100
AcDbLine
 10
9.557631956280605
 20
7.034415758908162
 30
0.0
 11
9.24186010334659
 21
7.350187611842177
 31
0.0
  0
LINE
  5
4F8
330
17
100
AcDbEntity
  8
PAPER
100
AcDbLine
 10
9.557631956280605
 20
7.201879072796231
 30
0.0
 11
9.24186010334659
 21
7.517650925730246
 31
0.0
  0
LINE
  5
4F9
330
17
100
AcDbEntity
  8
PAPER
100
AcDbLine
 10
9.557631956280605
 20
7.369342386684372
 30
0.0
 11
9.24186010334659
 21
7.685114239618386
 31
0.0
  0
LINE
  5
4FA
330
17
100
AcDbEntity
  8
PAPER
100
AcDbLine
 10
9.557631956280605
 20
7.536805700572513
 30
0.0
 11
9.24186010334659
 21
7.852577553506527
 31
0.0
  0
LINE
  5
4FB
330
17
100
AcDbEntity
  8
PAPER
100
AcDbLine
 10
9.557631956280605
 20
7.704269014460582
 30
0.0
 11
9.24186010334659
 21
8.020040867394669
 31
0.0
  0
LINE
  5
4FC
330
17
100
AcDbEntity
  8
PAPER
100
AcDbLine
 10
9.546575923257185
 20
6.208155222491022
 30
0.0
 11
9.24186010334659
 21
6.512871042401545
 31
0.0
  0
LINE
  5
4FD
330
17
100
AcDbEntity
  8
PAPER
100
AcDbLine
 10
9.557631956280605
 20
6.029635875579461
 30
0.0
 11
9.483833557755977
 21
6.103434274104117
 31
0.0
  0
LINE
  5
4FE
330
17
100
AcDbEntity
  8
PAPER
100
AcDbLine
 10
9.557631956280605
 20
5.862172561691392
 30
0.0
 11
9.31637024386786
 21
6.103434274104117
 31
0.0
  0
LINE
  5
4FF
330
17
100
AcDbEntity
  8
PAPER
100
AcDbLine
 10
9.557631956280605
 20
5.694709247803251
 30
0.0
 11
9.24186010334659
 21
6.010481100737266
 31
0.0
  0
LINE
  5
500
330
17
100
AcDbEntity
  8
PAPER
100
AcDbLine
 10
9.557631956280605
 20
5.527245933915111
 30
0.0
 11
9.24186010334659
 21
5.843017786849125
 31
0.0
  0
LINE
  5
501
330
17
100
AcDbEntity
  8
PAPER
100
AcDbLine
 10
9.495634688311524
 20
5.421779887996104
 30
0.0
 11
9.24186010334659
 21
5.675554472960985
 31
0.0
  0
LINE
  5
502
330
17
100
AcDbEntity
  8
PAPER
100
AcDbLine
 10
9.32817137442341
 20
5.421779887996104
 30
0.0
 11
9.24186010334659
 21
5.508091159072916
 31
0.0
  0
LINE
  5
503
330
17
100
AcDbEntity
  8
PAPER
100
AcDbLine
 10
9.37911260936908
 20
6.208155222491022
 30
0.0
 11
9.24186010334659
 21
6.345407728513476
 31
0.0
  0
LINE
  5
504
330
17
100
AcDbEntity
  8
PAPER
100
AcDbLine
 10
9.625267159050943
 20
6.208155222491022
 30
0.0
 11
8.516049833617403
 21
6.208155222491022
 31
0.0
  0
LINE
  5
505
330
17
100
AcDbEntity
  8
PAPER
100
AcDbLine
 10
9.177718945719368
 20
6.208155222491022
 30
0.0
 11
9.177718945719368
 21
6.335861060724369
 31
0.0
  0
LINE
  5
506
330
17
100
AcDbEntity
  8
PAPER
100
AcDbLine
 10
8.670691255165802
 20
6.208155222491022
 30
0.0
 11
8.52402799793416
 21
7.446138137464855
 31
0.0
  0
LINE
  5
507
330
17
100
AcDbEntity
  8
PAPER
100
AcDbLine
 10
8.61106999286861
 20
6.208155222491022
 30
0.0
 11
8.462484577376121
 21
7.462363053859909
 31
0.0
  0
LINE
  5
508
330
17
100
AcDbEntity
  8
PAPER
100
AcDbLine
 10
8.581259361720009
 20
6.208155222491022
 30
0.0
 11
8.431712867097097
 21
7.470475512057435
 31
0.0
  0
LINE
  5
509
330
17
100
AcDbEntity
  8
PAPER
100
AcDbLine
 10
9.177718945719368
 20
7.214101526697099
 30
0.0
 11
9.24186010334659
 21
7.214101526697099
 31
0.0
  0
CIRCLE
  5
50A
330
17
100
AcDbEntity
  8
PAPER
100
AcDbCircle
 10
9.036511007875237
 20
7.394468256859723
 30
0.0
 40
0.1677537968711955
  0
CIRCLE
  5
50B
330
17
100
AcDbEntity
  8
PAPER
100
AcDbCircle
 10
9.036511007875237
 20
7.394468256859723
 30
0.0
 40
0.019735740808376
  0
CIRCLE
  5
50C
330
17
100
AcDbEntity
  8
PAPER
100
AcDbCircle
 10
9.036511007875237
 20
7.394468256859723
 30
0.0
 40
0.1480180560628196
  0
CIRCLE
  5
50D
330
17
100
AcDbEntity
  8
PAPER
100
AcDbCircle
 10
9.036511007875237
 20
7.394468256859723
 30
0.0
 40
0.1282823152544436
  0
CIRCLE
  5
50E
330
17
100
AcDbEntity
  8
PAPER
100
AcDbCircle
 10
9.036511007875237
 20
7.394468256859723
 30
0.0
 40
0.1085465744460677
  0
LINE
  5
50F
330
17
100
AcDbEntity
  8
PAPER
100
AcDbLine
 10
8.78228112450864
 20
7.855844061839359
 30
0.0
 11
9.06535373141742
 21
8.138916668748187
 31
0.0
  0
LINE
  5
510
330
17
100
AcDbEntity
  8
PAPER
100
AcDbLine
 10
8.861224087742145
 20
7.823144815814174
 30
0.0
 11
9.17699594067616
 21
8.138916668748187
 31
0.0
  0
LINE
  5
511
330
17
100
AcDbEntity
  8
PAPER
100
AcDbLine
 10
8.703338161275137
 20
7.823144815814174
 30
0.0
 11
8.387566308341122
 21
8.138916668748187
 31
0.0
  0
LINE
  5
512
330
17
100
AcDbEntity
  8
PAPER
100
AcDbLine
 10
8.814980370533874
 20
7.823144815814174
 30
0.0
 11
8.499208517599855
 21
8.138916668748187
 31
0.0
  0
LINE
  5
513
330
17
100
AcDbEntity
  8
PAPER
100
AcDbLine
 10
8.058249984224072
 20
7.855844061839359
 30
0.0
 11
8.341322591132847
 21
8.138916668748187
 31
0.0
  0
LINE
  5
514
330
17
100
AcDbEntity
  8
PAPER
100
AcDbLine
 10
8.137192947457577
 20
7.823144815814174
 30
0.0
 11
8.420265554366352
 21
8.106217422722933
 31
0.0
  0
LINE
  5
515
330
17
100
AcDbEntity
  8
PAPER
100
AcDbLine
 10
7.979307020990569
 20
7.823144815814174
 30
0.0
 11
7.663535168056554
 21
8.138916668748187
 31
0.0
  0
LINE
  5
516
330
17
100
AcDbEntity
  8
PAPER
100
AcDbLine
 10
8.090949230249311
 20
7.823144815814174
 30
0.0
 11
7.775177377315294
 21
8.138916668748187
 31
0.0
  0
LINE
  5
517
330
17
100
AcDbEntity
  8
PAPER
100
AcDbLine
 10
7.334218843939513
 20
7.855844061839359
 30
0.0
 11
7.617291450848288
 21
8.138916668748187
 31
0.0
  0
LINE
  5
518
330
17
100
AcDbEntity
  8
PAPER
100
AcDbLine
 10
7.413161807173016
 20
7.823144815814174
 30
0.0
 11
7.696234414081791
 21
8.106217422722933
 31
0.0
  0
LINE
  5
519
330
17
100
AcDbEntity
  8
PAPER
100
AcDbLine
 10
7.255275880706008
 20
7.823144815814174
 30
0.0
 11
6.939504027771994
 21
8.138916668748187
 31
0.0
  0
LINE
  5
51A
330
17
100
AcDbEntity
  8
PAPER
100
AcDbLine
 10
7.36691808996475
 20
7.823144815814174
 30
0.0
 11
7.051146237030735
 21
8.138916668748187
 31
0.0
  0
LINE
  5
51B
330
17
100
AcDbEntity
  8
PAPER
100
AcDbLine
 10
9.361382223193746
 20
8.138916668748187
 30
0.0
 11
9.361382223193746
 21
8.217859631981692
 31
0.0
  0
LINE
  5
51C
330
17
100
AcDbEntity
  8
PAPER
100
AcDbLine
 10
8.981772816780235
 20
7.823144815814174
 30
0.0
 11
8.981772816780235
 21
7.744201852580671
 31
0.0
  0
LINE
  5
51D
330
17
100
AcDbEntity
  8
PAPER
100
AcDbLine
 10
9.557631956280605
 20
7.871732328348722
 30
0.0
 11
9.290447615881166
 21
8.138916668748187
 31
0.0
  0
LINE
  5
51E
330
17
100
AcDbEntity
  8
PAPER
100
AcDbLine
 10
9.557631956280605
 20
8.039195642236791
 30
0.0
 11
9.336060074236359
 21
8.260767524281037
 31
0.0
  0
LINE
  5
51F
330
17
100
AcDbEntity
  8
PAPER
100
AcDbLine
 10
9.557631956280605
 20
8.206658956124933
 30
0.0
 11
9.503523388124508
 21
8.260767524281039
 31
0.0
  0
LINE
  5
520
330
17
100
AcDbEntity
  8
PAPER
100
AcDbLine
 10
9.24186010334659
 20
8.217859631981692
 30
0.0
 11
9.24186010334659
 21
8.260767524281037
 31
0.0
  0
LINE
  5
521
330
17
100
AcDbEntity
  8
PAPER
100
AcDbLine
 10
9.638794199605012
 20
6.103434274104117
 30
0.0
 11
8.516049833617403
 21
6.103434274104117
 31
0.0
  0
LWPOLYLINE
  5
522
330
17
100
AcDbEntity
  8
PAPER
100
AcDbPolyline
 90
        4
 70
     0
 43
0.0
 10
8.545646989729197
 20
7.640114363810244
 10
8.345012657107879
 20
7.618524971983967
 42
0.8734215290865503
 10
8.341565079578311
 20
7.494241502027261
 10
8.576054684202404
 20
7.432422152435753
  0
POINT
  5
528
330
17
100
AcDbEntity
  8
PAPER
100
AcDbPoint
 10
8.47572612088177
 20
7.601570746756182
 30
0.0
  0
POINT
  5
529
330
17
100
AcDbEntity
  8
PAPER
100
AcDbPoint
 10
8.479440550210005
 20
7.557478404832069
 30
0.0
  0
LWPOLYLINE
  5
52A
330
17
100
AcDbEntity
  8
PAPER
100
AcDbPolyline
 90
        4
 70
     0
 43
0.0
 10
8.546520476430311
 20
7.631996885432846
 10
8.345886143808993
 20
7.61040749360657
 42
0.8764549139776061
 10
8.343257527208635
 20
7.502238611235839
 10
8.578135966226408
 20
7.440316751815145
  0
LINE
  5
530
330
17
100
AcDbEntity
  8
PAPER
100
AcDbLine
 10
8.545646989729197
 20
7.640114363810243
 30
0.0
 11
8.546520476430309
 21
7.631996885432846
 31
0.0
  0
LINE
  5
531
330
17
100
AcDbEntity
  8
PAPER
100
AcDbLine
 10
8.57813596622641
 20
7.440316751815144
 30
0.0
 11
8.576054684202405
 21
7.432422152435752
 31
0.0
  0
LINE
  5
532
330
17
100
AcDbEntity
  8
PAPER
100
AcDbLine
 10
8.522995476395378
 20
7.45485364023276
 30
0.0
 11
8.502569683365578
 21
7.627267530889421
 31
0.0
  0
LINE
  5
533
330
17
100
AcDbEntity
  8
PAPER
100
AcDbLine
 10
8.461452055837343
 20
7.471078556627811
 30
0.0
 11
8.443698905360623
 21
7.62093270136717
 31
0.0
  0
LINE
  5
534
330
17
100
AcDbEntity
  8
PAPER
100
AcDbLine
 10
8.430680345558318
 20
7.479191014825338
 30
0.0
 11
8.414263516358143
 21
7.617765286606043
 31
0.0
  0
LINE
  5
535
330
17
100
AcDbEntity
  8
PAPER
100
AcDbLine
 10
8.413302952547772
 20
7.62587339499274
 30
0.0
 11
8.405329908922009
 21
7.693173767119652
 31
0.0
  0
LINE
  5
536
330
17
100
AcDbEntity
  8
PAPER
100
AcDbLine
 10
8.442738341550253
 20
7.629040809753865
 30
0.0
 11
8.434727937848538
 21
7.696656537864289
 31
0.0
  0
LINE
  5
537
330
17
100
AcDbEntity
  8
PAPER
100
AcDbLine
 10
8.50160911955521
 20
7.635375639276117
 30
0.0
 11
8.493523995701611
 21
7.703622079353419
 31
0.0
  0
LINE
  5
538
330
17
100
AcDbEntity
  8
PAPER
100
AcDbLine
 10
8.505215325342065
 20
7.532539429662636
 30
0.0
 11
8.494100891573426
 21
7.626356240872866
 31
0.0
  0
LINE
  5
539
330
17
100
AcDbEntity
  8
PAPER
100
AcDbLine
 10
8.464629262588616
 20
7.527731217780506
 30
0.0
 11
8.453463250586944
 21
7.621983400279283
 31
0.0
  0
LINE
  5
53A
330
17
100
AcDbEntity
  8
PAPER
100
AcDbLine
 10
8.505215325342065
 20
7.532539429662636
 30
0.0
 11
8.464629262588616
 21
7.527731217780506
 31
0.0
  0
LINE
  5
53B
330
17
100
AcDbEntity
  8
PAPER
100
AcDbLine
 10
9.557631956280605
 20
1.632517652787923
 30
0.0
 11
9.24186010334659
 21
1.632517652787923
 31
0.0
  0
SOLID
  5
53C
330
17
100
AcDbEntity
  8
PAPER
100
AcDbTrace
 10
9.068468316692444
 20
6.800704256735553
 30
0.0
 11
9.076351827609935
 21
6.778743047751112
 31
0.0
 12
9.138293699104508
 22
6.813374184995806
 32
0.0
 13
9.138293699104508
 23
6.813374184995806
 33
0.0
  0
LINE
  5
53D
330
17
100
AcDbEntity
  8
PAPER
100
AcDbLine
 10
9.072410072151189
 20
6.789723652243332
 30
0.0
 11
8.083184535887239
 21
6.434617049481913
 31
0.0
  0
LINE
  5
53E
330
17
100
AcDbEntity
  8
PAPER
100
AcDbLine
 10
8.083184535887239
 20
6.434617049481914
 30
0.0
 11
8.013184535887239
 21
6.434617049481914
 31
0.0
  0
TEXT
  5
53F
330
17
100
AcDbEntity
  8
PAPER
100
AcDbText
 10
0.5217529917841392
 20
7.627122312760482
 30
0.0
 40
0.07
  1
MAX. 10'0" DOOR HEIGHT
  7
arial1
100
AcDbText
  0
SOLID
  5
541
330
17
100
AcDbEntity
  8
PAPER
100
AcDbTrace
 10
0.9975786638474186
 20
3.193152161221389
 30
0.0
 11
1.018877756391633
 21
3.202680702622749
 31
0.0
 12
1.036813834323604
 22
3.134019154289425
 32
0.0
 13
1.036813834323604
 23
3.134019154289425
 33
0.0
  0
LINE
  5
542
330
17
100
AcDbEntity
  8
PAPER
100
AcDbLine
 10
1.008228210119526
 20
3.197916431922068
 30
0.0
 11
0.8068541449044541
 21
3.648046695343992
 31
0.0
  0
LINE
  5
543
330
17
100
AcDbEntity
  8
PAPER
100
AcDbLine
 10
0.8068541449044541
 20
3.648046695343992
 30
0.0
 11
0.7368541449044539
 21
3.648046695343992
 31
0.0
  0
TEXT
  5
544
330
17
100
AcDbEntity
  8
PAPER
100
AcDbText
 10
0.3909443965684041
 20
3.841201128159291
 30
0.0
 40
0.07
  1
END
  7
arial1
100
AcDbText
  0
TEXT
  5
545
330
17
100
AcDbEntity
  8
PAPER
100
AcDbText
 10
0.3909443965684041
 20
3.727867794825957
 30
0.0
 40
0.07
  1
BEARING
  7
arial1
100
AcDbText
  0
TEXT
  5
546
330
17
100
AcDbEntity
  8
PAPER
100
AcDbText
 10
0.3909443965684041
 20
3.614534461492624
 30
0.0
 40
0.07
  1
PLATE:
  7
arial1
100
AcDbText
  0
TEXT
  5
549
330
17
100
AcDbEntity
  8
PAPER
100
AcDbText
 10
10.38567452513905
 20
3.999700134676111
 30
0.0
 40
0.07
  1
DOOR HEIGHT + HEADROOM
 50
90.0
  7
arial1
 72
     4
 11
10.35065065065065
 21
4.688359752684297
 31
0.0
100
AcDbText
  0
TEXT
  5
54B
330
17
100
AcDbEntity
  8
PAPER
100
AcDbText
 10
0.9876098808732848
 20
1.97622774029765
 30
0.0
 40
0.07
  1
FOR USE WITH STEEL JAMBS
  7
arial1
100
AcDbText
  0
TEXT
  5
54C
330
17
100
AcDbEntity
  8
PAPER
100
AcDbText
 10
0.9876098808732848
 20
1.660341792169812
 30
0.0
 40
0.07
  1
FOR USE WITH WOOD JAMBS
  7
arial1
100
AcDbText
  0
TEXT
  5
54D
330
17
100
AcDbEntity
  8
HL-TRACK
100
AcDbText
 10
0.3496830580462932
 20
6.636887627755263
 30
0.0
 40
0.07
  1
MINIMUM HEADROOM =
  7
arial1
100
AcDbText
  0
TEXT
  5
54E
330
17
100
AcDbEntity
  8
HL-TRACK
100
AcDbText
 10
0.3496830580462932
 20
6.52355429442193
 30
0.0
 40
0.07
  1
DOOR HEIGHT + 12" (BREAKAWAY TRACK)
  7
arial1
100
AcDbText
  0
TEXT
  5
54F
330
17
100
AcDbEntity
  8
HL-TRACK
100
AcDbText
 10
0.3496830580462932
 20
6.410220961088596
 30
0.0
 40
0.07
  1
DOOR HEIGHT + 24" (STRAIGHT INCLINE TRACK)
  7
arial1
100
AcDbText
  0
TEXT
  5
550
330
17
100
AcDbEntity
  8
HL-TRACK
100
AcDbText
 10
0.3496830580462932
 20
6.18355429442193
 30
0.0
 40
0.07
  1
12" ADDITIONAL HEADROOM REQUIRED FOR DOUBLE SHAFTS
  7
arial1
100
AcDbText
  0
INSERT
  5
551
330
17
100
AcDbEntity
  8
PAPER
100
AcDbBlockReference
  2
RECT
 10
5.544761089864399
 20
2.396321175189223
 30
0.0
 41
0.09375
 42
0.09375
 43
0.09375
  0
TEXT
  5
552
330
17
100
AcDbEntity
  8
PAPER
100
AcDbText
 10
5.694737121613778
 20
2.412041067563681
 30
0.0
 40
0.07
  1
NONE
  7
arial1
100
AcDbText
  0
LWPOLYLINE
  5
553
330
17
100
AcDbEntity
  8
HL-TRACK
100
AcDbPolyline
 90
        2
 70
     0
 43
0.0
 10
9.24186010334659
 20
7.496119750023324
 10
9.169958789056865
 20
7.496119750023324
  0
LWPOLYLINE
  5
557
330
17
100
AcDbEntity
  8
HL-TRACK
100
AcDbPolyline
 90
        2
 70
     0
 43
0.0
 10
9.24186010334659
 20
7.279464689753512
 10
9.158640103170078
 20
7.279464689753512
  0
LWPOLYLINE
  5
55B
330
17
100
AcDbEntity
  8
HL-TRACK
100
AcDbPolyline
 90
        2
 70
     0
 43
0.0
 10
8.923609005122719
 20
7.270393786725223
 10
8.923609005122719
 20
7.189431850686629
  0
LWPOLYLINE
  5
55F
330
17
100
AcDbEntity
  8
HL-TRACK
100
AcDbPolyline
 90
        2
 70
     0
 43
0.0
 10
9.120414523363939
 20
7.249204577802216
 10
9.120414523363939
 20
7.189431850686629
  0
INSERT
  5
564
330
17
100
AcDbEntity
  8
HL-TRACK
100
AcDbBlockReference
  2
12393
 10
0.1408662625548491
 20
0.6953545816086355
 30
0.0
  0
TEXT
  5
5BD
330
17
100
AcDbEntity
  8
PAPER
100
AcDbText
 10
4.238156660742261
 20
1.028184681627082
 30
0.0
 40
0.06
  1
OPENING SIZE:              '            " W  x               '           " H
  7
arial1
100
AcDbText
  0
TEXT
  5
5BE
330
17
100
AcDbEntity
  8
PAPER
100
AcDbText
 10
4.238156660742261
 20
0.7559681178433885
 30
0.0
 40
0.06
  1
DOOR SIZE:             '           " W  x                '          " H
  7
arial1
100
AcDbText
  0
LINE
  5
5BF
330
17
100
AcDbEntity
  8
PAPER
100
AcDbLine
 10
5.681826227580661
 20
0.7379282409430156
 30
0.0
 11
5.889799720208979
 21
0.7379282409430156
 31
0.0
  0
LINE
  5
5C0
330
17
100
AcDbEntity
  8
PAPER
100
AcDbLine
 10
4.208680654796743
 20
0.9574665948454448
 30
0.0
 11
6.490612032246341
 21
0.9574665948454448
 31
0.0
  0
LINE
  5
5C1
330
17
100
AcDbEntity
  8
PAPER
100
AcDbLine
 10
4.208680654796743
 20
1.205891574261351
 30
0.0
 11
6.490612032246341
 21
1.205891574261351
 31
0.0
  0
TEXT
  5
5C2
330
17
100
AcDbEntity
  8
PAPER
100
AcDbText
 10
5.52980647010974
 20
1.294196491047623
 30
0.0
 40
0.06
  1
TRACK SIZE:
  7
arial1
100
AcDbText
  0
LINE
  5
5C3
330
17
100
AcDbEntity
  8
PAPER
100
AcDbLine
 10
1.837598686172373
 20
1.258817580632297
 30
0.0
 11
4.208680654796743
 21
1.258817580632297
 31
0.0
  0
LINE
  5
5C4
330
17
100
AcDbEntity
  8
PAPER
100
AcDbLine
 10
1.837598686172373
 20
1.058117749579336
 30
0.0
 11
4.208680654796743
 21
1.058117749579336
 31
0.0
  0
LINE
  5
5C5
330
17
100
AcDbEntity
  8
PAPER
100
AcDbLine
 10
1.837598686172373
 20
0.8604134383928377
 30
0.0
 11
4.208680654796743
 21
0.8604134383928377
 31
0.0
  0
LINE
  5
5C6
330
17
100
AcDbEntity
  8
PAPER
100
AcDbLine
 10
1.830779037511767
 20
1.436448394725808
 30
0.0
 11
1.830779037511767
 21
0.6889893289309269
 31
0.0
  0
LINE
  5
5C7
330
17
100
AcDbEntity
  8
PAPER
100
AcDbLine
 10
1.837979037511768
 20
1.436448394725808
 30
0.0
 11
1.837979037511768
 21
0.6889893289309269
 31
0.0
  0
TEXT
  5
5C8
330
17
100
AcDbEntity
  8
PAPER
100
AcDbText
 10
4.427871172067335
 20
1.247944505809136
 30
0.0
 40
0.06
  1
 
  7
arial1
100
AcDbText
  0
LINE
  5
5C9
330
17
100
AcDbEntity
  8
PAPER
100
AcDbLine
 10
1.845179037511767
 20
1.436448394725808
 30
0.0
 11
1.845179037511767
 21
0.6889893289309269
 31
0.0
  0
LINE
  5
5CA
330
17
100
AcDbEntity
  8
PAPER
100
AcDbLine
 10
4.208680654796743
 20
0.6888209775701039
 30
0.0
 11
4.208680654796743
 21
1.436984578369171
 31
0.0
  0
LINE
  5
5CB
330
17
100
AcDbEntity
  8
PAPER
100
AcDbLine
 10
5.505788172557653
 20
1.205891574261351
 30
0.0
 11
5.505788172557653
 21
1.434095915817824
 31
0.0
  0
TEXT
  5
5CC
330
17
100
AcDbEntity
  8
PAPER
100
AcDbText
 10
1.870928287060573
 20
0.7442654702565643
 30
0.0
 40
0.06
  1
CONT:
  7
arial1
100
AcDbText
  0
TEXT
  5
5CD
330
17
100
AcDbEntity
  8
PAPER
100
AcDbText
 10
1.870928287060573
 20
0.9292878709242538
 30
0.0
 40
0.06
  1
ARCH:
  7
arial1
100
AcDbText
  0
TEXT
  5
5CE
330
17
100
AcDbEntity
  8
PAPER
100
AcDbText
 10
1.870928287060573
 20
1.129287870924253
 30
0.0
 40
0.06
  1
JOB:
  7
arial1
100
AcDbText
  0
LINE
  5
5CF
330
17
100
AcDbEntity
  8
PAPER
100
AcDbLine
 10
5.072348353350452
 20
0.7379282409430156
 30
0.0
 11
5.28032184597877
 21
0.7379282409430156
 31
0.0
  0
LINE
  5
5D0
330
17
100
AcDbEntity
  8
PAPER
100
AcDbLine
 10
5.234105514283588
 20
1.009462520769704
 30
0.0
 11
5.442079006911906
 21
1.009462520769704
 31
0.0
  0
LINE
  5
5D1
330
17
100
AcDbEntity
  8
PAPER
100
AcDbLine
 10
4.806604446103158
 20
0.7379282409430156
 30
0.0
 11
5.014577938731475
 21
0.7379282409430156
 31
0.0
  0
LINE
  5
5D2
330
17
100
AcDbEntity
  8
PAPER
100
AcDbLine
 10
4.968361607036293
 20
1.009462520769704
 30
0.0
 11
5.176335099664611
 21
1.009462520769704
 31
0.0
  0
TEXT
  5
5D3
330
17
100
AcDbEntity
  8
PAPER
100
AcDbText
 10
1.870928287060573
 20
1.317305791458405
 30
0.0
 40
0.06
  1
CUST:
  7
arial1
100
AcDbText
  0
TEXT
  5
5D4
330
17
100
AcDbEntity
  8
PAPER
100
AcDbText
 10
4.572062884987993
 20
1.29362999376819
 30
0.0
 40
0.06
  1
VERTICAL LIFT
  7
arial1
100
AcDbText
  0
LINE
  5
5D5
330
17
100
AcDbEntity
  8
PAPER
100
AcDbLine
 10
9.300739367721106
 20
1.280317702823786
 30
0.0
 11
9.696429867771598
 21
1.280317702823786
 31
0.0
  0
LINE
  5
5D6
330
17
100
AcDbEntity
  8
PAPER
100
AcDbLine
 10
9.180260937491798
 20
1.062500710995393
 30
0.0
 11
9.690566333712226
 21
1.062500710995393
 31
0.0
  0
LINE
  5
5D7
330
17
100
AcDbEntity
  8
PAPER
100
AcDbLine
 10
9.380886582826297
 20
0.8519494085872935
 30
0.0
 11
9.694134902916564
 21
0.8519494085872935
 31
0.0
  0
LINE
  5
5D8
330
17
100
AcDbEntity
  8
PAPER
100
AcDbLine
 10
8.129277213047323
 20
0.688820977570104
 30
0.0
 11
8.129277213047323
 21
1.436984578369171
 31
0.0
  0
LINE
  5
5D9
330
17
100
AcDbEntity
  8
PAPER
100
AcDbLine
 10
6.490612032246341
 20
0.6888209775701039
 30
0.0
 11
6.490612032246341
 21
1.436984578369171
 31
0.0
  0
TEXT
  5
5DA
330
17
100
AcDbEntity
  8
PAPER
100
AcDbText
 10
6.524297109628866
 20
1.294196491047623
 30
0.0
 40
0.06
  1
OPERATOR MODEL #:
  7
arial1
100
AcDbText
  0
TEXT
  5
5DB
330
17
100
AcDbEntity
  8
PAPER
100
AcDbText
 10
8.163988515711995
 20
1.294196491047623
 30
0.0
 40
0.06
  1
OVERHEAD CLEARANCE:
  7
arial1
100
AcDbText
  0
LINE
  5
5DC
330
17
100
AcDbEntity
  8
PAPER
100
AcDbLine
 10
7.110347728822606
 20
0.8523767027349769
 30
0.0
 11
8.090904821666255
 21
0.8523767027349769
 31
0.0
  0
LINE
  5
5DD
330
17
100
AcDbEntity
  8
PAPER
100
AcDbLine
 10
7.570836226335067
 20
1.062629068130666
 30
0.0
 11
8.092106179415516
 21
1.062629068130666
 31
0.0
  0
LINE
  5
5DE
330
17
100
AcDbEntity
  8
PAPER
100
AcDbLine
 10
7.504074588168658
 20
1.280317702823786
 30
0.0
 11
8.092106179415516
 21
1.280317702823786
 31
0.0
  0
TEXT
  5
5DF
330
17
100
AcDbEntity
  8
PAPER
100
AcDbText
 10
6.523095751879605
 20
0.8711633713566349
 30
0.0
 40
0.06
  1
BACK ROOM:
  7
arial1
100
AcDbText
  0
TEXT
  5
5E0
330
17
100
AcDbEntity
  8
PAPER
100
AcDbText
 10
6.524297109628866
 20
1.076507856354502
 30
0.0
 40
0.06
  1
OPERATOR BACKROOM:
  7
arial1
100
AcDbText
  0
LINE
  5
5E1
330
17
100
AcDbEntity
  8
PAPER
100
AcDbLine
 10
6.103550254299195
 20
1.009462520769704
 30
0.0
 11
6.311523746927512
 21
1.009462520769704
 31
0.0
  0
LINE
  5
5E2
330
17
100
AcDbEntity
  8
PAPER
100
AcDbLine
 10
5.941793093366059
 20
0.7379282409430156
 30
0.0
 11
6.149766585994377
 21
0.7379282409430156
 31
0.0
  0
LINE
  5
5E3
330
17
100
AcDbEntity
  8
PAPER
100
AcDbLine
 10
5.843583388513797
 20
1.009462520769704
 30
0.0
 11
6.051556881142115
 21
1.009462520769704
 31
0.0
  0
TEXT
  5
5E4
330
17
100
AcDbEntity
  8
PAPER
100
AcDbText
 10
8.161069016671044
 20
0.8630281021186934
 30
0.0
 40
0.06
  1
HEADROOM REQUIREMENT:
  7
arial1
100
AcDbText
  0
TEXT
  5
5E5
330
17
100
AcDbEntity
  8
PAPER
100
AcDbText
 10
8.161069016671044
 20
1.073579404526793
 30
0.0
 40
0.06
  1
AVAILABLE HEADROOM:
  7
arial1
100
AcDbText
  0
LINE
  5
5E6
330
17
100
AcDbEntity
  8
PAPER
100
AcDbLine
 10
9.735072100203822
 20
0.6888209775701039
 30
0.0
 11
9.735072100203822
 21
1.436984578369171
 31
0.0
  0
LINE
  5
5E7
330
17
100
AcDbEntity
  8
PAPER
100
AcDbLine
 10
10.06102171562477
 20
0.9307065705044731
 30
0.0
 11
10.76588652302675
 21
0.9307065705044731
 31
0.0
  0
LINE
  5
5E8
330
17
100
AcDbEntity
  8
PAPER
100
AcDbLine
 10
10.02578684236564
 20
1.092576421669105
 30
0.0
 11
10.76816671706441
 21
1.092576421669105
 31
0.0
  0
TEXT
  5
5E9
330
17
100
AcDbEntity
  8
PAPER
100
AcDbText
 10
10.21502739017514
 20
0.5686854902172859
 30
0.0
 40
0.056
  1
REV. MAY, 2011
  7
arial1
 72
     2
 11
10.8063889181424
 21
0.5686854902172859
 31
0.0
100
AcDbText
  0
TEXT
  5
5EA
330
17
100
AcDbEntity
  8
PAPER
100
AcDbText
 10
9.761862189139126
 20
0.7728985691572678
 30
0.0
 40
0.06
  1
PAGE            of
  7
arial1
100
AcDbText
  0
LINE
  5
5EB
330
17
100
AcDbEntity
  8
PAPER
100
AcDbLine
 10
10.00515997877182
 20
0.7323590064013324
 30
0.0
 11
10.23089918849977
 21
0.7323590064013324
 31
0.0
  0
TEXT
  5
5EC
330
17
100
AcDbEntity
  8
PAPER
100
AcDbText
 10
9.761862189139126
 20
1.1244944204903
 30
0.0
 40
0.06
  1
DATE:
  7
arial1
100
AcDbText
  0
TEXT
  5
5ED
330
17
100
AcDbEntity
  8
PAPER
100
AcDbText
 10
9.761862189139126
 20
0.9566759945290829
 30
0.0
 40
0.06
  1
BID #:
  7
arial1
100
AcDbText
  0
LINE
  5
5EE
330
17
100
AcDbEntity
  8
PAPER
100
AcDbLine
 10
10.39963354728631
 20
0.7323590064013324
 30
0.0
 11
10.62537275701426
 21
0.7323590064013324
 31
0.0
  0
TEXT
  5
5EF
330
17
100
AcDbEntity
  8
PAPER
100
AcDbText
 10
9.769028690630268
 20
1.284827480808006
 30
0.0
 40
0.1008811405475445
  1
SHEET `T-7'
  7
ROMANT
 72
     2
 11
10.77784009610571
 21
1.284827480808006
 31
0.0
100
AcDbText
  0
TEXT
  5
5F0
330
17
100
AcDbEntity
  8
PAPER
100
AcDbText
 10
0.4110315890142662
 20
4.435614163053323
 30
0.0
 40
0.07
  1
TO COUNTERBALANCE DOOR LOAD.  AN EXACT SPRING LAYOUT
  7
arial1
100
AcDbText
  0
TEXT
  5
5F1
330
17
100
AcDbEntity
  8
PAPER
100
AcDbText
 10
0.4110315890142662
 20
4.32316532267133
 30
0.0
 40
0.07
  1
CAN BE FURNISHED UPON APPROVAL OF BID.  SOME DOORS
  7
arial1
100
AcDbText
  0
TEXT
  5
5F2
330
17
100
AcDbEntity
  8
PAPER
100
AcDbText
 10
0.4110315890142662
 20
4.210716482289338
 30
0.0
 40
0.07
  1
MAY REQUIRE 6" SPRINGS OR DOUBLE SHAFTS.
  7
arial1
100
AcDbText
  0
TEXT
  5
5F3
330
17
100
AcDbEntity
  8
PAPER
100
AcDbText
 10
0.4110315890142662
 20
4.548063003435315
 30
0.0
 40
0.07
  1
SPRING SIZE AND CONFIGURATION INDIVIDUALLY CALCULATED
  7
arial1
100
AcDbText
  0
TEXT
  5
5F4
330
17
100
AcDbEntity
  8
PAPER
100
AcDbText
 10
0.3270775424072774
 20
4.682571480671214
 30
0.0
 40
0.07
  1
%%uNOTE:
  7
arial1
100
AcDbText
  0
LINE
  5
5F8
330
17
100
AcDbEntity
  8
PAPER
100
AcDbLine
 10
9.647631956280605
 20
5.421779887996104
 30
0.0
 11
9.942280929578229
 21
5.421779887996104
 31
0.0
  0
LINE
  5
5F9
330
17
100
AcDbEntity
  8
PAPER
100
AcDbLine
 10
9.882280929578229
 20
5.491779887996104
 30
0.0
 11
9.882280929578229
 21
6.244657536955054
 31
0.0
  0
LINE
  5
5FA
330
17
100
AcDbEntity
  8
PAPER
100
AcDbLine
 10
9.882280929578229
 20
7.674201852580671
 30
0.0
 11
9.882280929578229
 21
6.92132420362172
 31
0.0
  0
SOLID
  5
5FB
330
17
100
AcDbEntity
  8
PAPER
100
AcDbTrace
 10
9.893947596244895
 20
5.491779887996104
 30
0.0
 11
9.870614262911562
 21
5.491779887996104
 31
0.0
 12
9.882280929578229
 22
5.421779887996104
 32
0.0
 13
9.882280929578229
 23
5.421779887996104
 33
0.0
  0
SOLID
  5
5FC
330
17
100
AcDbEntity
  8
PAPER
100
AcDbTrace
 10
9.893947596244895
 20
7.674201852580671
 30
0.0
 11
9.870614262911562
 21
7.674201852580671
 31
0.0
 12
9.882280929578229
 22
7.744201852580671
 32
0.0
 13
9.882280929578229
 23
7.744201852580671
 33
0.0
  0
TEXT
  5
5FD
330
17
100
AcDbEntity
  8
PAPER
100
AcDbText
 10
9.917280929578229
 20
6.314657536955054
 30
0.0
 40
0.07
  1
HEADROOM
 50
90.0
  7
arial1
100
AcDbText
  0
LINE
  5
5FE
330
17
100
AcDbEntity
  8
PAPER
100
AcDbLine
 10
9.647631956280605
 20
1.632517652787923
 30
0.0
 11
10.29398398398398
 21
1.632517652787923
 31
0.0
  0
LINE
  5
5FF
330
17
100
AcDbEntity
  8
PAPER
100
AcDbLine
 10
9.071772816780235
 20
7.744201852580671
 30
0.0
 11
10.29398398398398
 21
7.744201852580671
 31
0.0
  0
LINE
  5
600
330
17
100
AcDbEntity
  8
PAPER
100
AcDbLine
 10
10.23398398398398
 20
1.702517652787923
 30
0.0
 11
10.23398398398398
 21
3.995026419350964
 31
0.0
  0
LINE
  5
601
330
17
100
AcDbEntity
  8
PAPER
100
AcDbLine
 10
10.23398398398398
 20
7.674201852580671
 30
0.0
 11
10.23398398398398
 21
5.38169308601763
 31
0.0
  0
SOLID
  5
602
330
17
100
AcDbEntity
  8
PAPER
100
AcDbTrace
 10
10.24565065065065
 20
1.702517652787923
 30
0.0
 11
10.22231731731731
 21
1.702517652787923
 31
0.0
 12
10.23398398398398
 22
1.632517652787923
 32
0.0
 13
10.23398398398398
 23
1.632517652787923
 33
0.0
  0
SOLID
  5
603
330
17
100
AcDbEntity
  8
PAPER
100
AcDbTrace
 10
10.24565065065065
 20
7.674201852580671
 30
0.0
 11
10.22231731731731
 21
7.674201852580671
 31
0.0
 12
10.23398398398398
 22
7.744201852580671
 32
0.0
 13
10.23398398398398
 23
7.744201852580671
 33
0.0
  0
TEXT
  5
604
330
17
100
AcDbEntity
  8
PAPER
100
AcDbText
 10
10.26898398398398
 20
4.065026419350963
 30
0.0
 40
0.07
  1
MIN. FLOOR TO CEILING
 50
90.0
  7
arial1
100
AcDbText
  0
SOLID
  5
672
330
17
100
AcDbEntity
  8
PAPER
100
AcDbTrace
 10
4.869423057146229
 20
3.09252185944115
 30
0.0
 11
4.848409928145055
 21
3.102665470929398
 31
0.0
 12
4.828485658180899
 22
3.034554278181755
 32
0.0
 13
4.828485658180899
 23
3.034554278181755
 33
0.0
  0
LINE
  5
673
330
17
100
AcDbEntity
  8
PAPER
100
AcDbLine
 10
4.858916492645643
 20
3.097593665185274
 30
0.0
 11
5.04655479574635
 21
3.486298208255022
 31
0.0
  0
LINE
  5
674
330
17
100
AcDbEntity
  8
PAPER
100
AcDbLine
 10
5.04655479574635
 20
3.486298208255022
 30
0.0
 11
5.11655479574635
 21
3.486298208255022
 31
0.0
  0
TEXT
  5
675
330
17
100
AcDbEntity
  8
PAPER
100
AcDbText
 10
5.143023034718422
 20
3.453857999000416
 30
0.0
 40
0.07
  1
SHAFT CENTERLINE = 2 x DH + 6" 
  7
arial1
100
AcDbText
  0
ENDSEC
  0
SECTION
  2
OBJECTS
  0
DICTIONARY
  5
C
330
0
100
AcDbDictionary
281
     1
  3
ACAD_COLOR
350
643
  3
ACAD_GROUP
350
D
  3
ACAD_LAYOUT
350
577
  3
ACAD_MATERIAL
350
611
  3
ACAD_MLEADERSTYLE
350
658
  3
ACAD_MLINESTYLE
350
1A
  3
ACAD_PLOTSETTINGS
350
578
  3
ACAD_PLOTSTYLENAME
350
575
  3
ACAD_SCALELIST
350
646
  3
ACAD_TABLESTYLE
350
644
  3
ACAD_VISUALSTYLE
350
62A
  3
ACDB_RECOMPOSE_DATA
350
6DC
  3
ACDBVARIABLEDICTIONARY
350
34
  0
DICTIONARY
  5
668
330
2
100
AcDbDictionary
280
     1
281
     1
  3
ACAD_LAYERSTATES
360
669
  0
DICTIONARY
  5
676
330
E
100
AcDbDictionary
280
     1
281
     1
  3
ADSK_XREC_LAYER_RECONCILED
360
677
  0
DICTIONARY
  5
678
330
28
100
AcDbDictionary
280
     1
281
     1
  3
ADSK_XREC_LAYER_RECONCILED
360
679
  0
DICTIONARY
  5
67A
330
2A
100
AcDbDictionary
280
     1
281
     1
  3
ADSK_XREC_LAYER_RECONCILED
360
67B
  0
DICTIONARY
  5
643
102
{ACAD_REACTORS
330
C
102
}
330
C
100
AcDbDictionary
281
     1
  0
DICTIONARY
  5
D
102
{ACAD_REACTORS
330
C
102
}
330
C
100
AcDbDictionary
281
     1
  0
DICTIONARY
  5
577
102
{ACAD_REACTORS
330
C
102
}
330
C
100
AcDbDictionary
281
     1
  3
Layout1
350
57A
  3
Model
350
579
  0
DICTIONARY
  5
611
102
{ACAD_REACTORS
330
C
102
}
330
C
100
AcDbDictionary
281
     1
  3
ByBlock
350
61A
  3
ByLayer
350
612
  3
Global
350
622
  0
DICTIONARY
  5
658
102
{ACAD_REACTORS
330
C
102
}
330
C
100
AcDbDictionary
281
     1
  3
Standard
350
659
  0
DICTIONARY
  5
1A
102
{ACAD_REACTORS
330
C
102
}
330
C
100
AcDbDictionary
281
     1
  3
STANDARD
350
1B
  0
DICTIONARY
  5
578
102
{ACAD_REACTORS
330
C
102
}
330
C
100
AcDbDictionary
281
     1
  0
ACDBDICTIONARYWDFLT
  5
575
102
{ACAD_REACTORS
330
C
102
}
330
C
100
AcDbDictionary
281
     1
  3
Normal
350
576
100
AcDbDictionaryWithDefault
340
576
  0
DICTIONARY
  5
646
102
{ACAD_REACTORS
330
C
102
}
330
C
100
AcDbDictionary
281
     1
  3
A0
350
647
  3
A1
350
648
  3
A2
350
649
  3
A3
350
64A
  3
A4
350
64B
  3
A5
350
64C
  3
A6
350
64D
  3
A7
350
64E
  3
A8
350
64F
  3
A9
350
650
  3
B0
350
651
  3
B1
350
652
  3
B2
350
653
  3
B3
350
654
  3
B4
350
655
  3
B5
350
656
  3
B6
350
657
  0
DICTIONARY
  5
644
102
{ACAD_REACTORS
330
C
102
}
330
C
100
AcDbDictionary
281
     1
  3
Standard
350
645
  0
DICTIONARY
  5
62A
102
{ACAD_REACTORS
330
C
102
}
330
C
100
AcDbDictionary
281
     1
  3
2dWireframe
350
630
  3
Basic
350
62F
  3
Brighten
350
636
  3
ColorChange
350
63A
  3
Conceptual
350
633
  3
Dim
350
635
  3
EdgeColorOff
350
642
  3
Facepattern
350
639
  3
Flat
350
62B
  3
FlatWithEdges
350
62C
  3
Gouraud
350
62D
  3
GouraudWithEdges
350
62E
  3
Hidden
350
632
  3
JitterOff
350
640
  3
Linepattern
350
638
  3
OverhangOff
350
641
  3
Realistic
350
634
  3
Shaded
350
63F
  3
Shaded with edges
350
63E
  3
Shades of Gray
350
63B
  3
Sketchy
350
63C
  3
Thicken
350
637
  3
Wireframe
350
631
  3
X-Ray
350
63D
  0
XRECORD
  5
6DC
102
{ACAD_REACTORS
330
C
102
}
330
C
100
AcDbXrecord
280
     1
 90
        1
330
645
  0
DICTIONARY
  5
34
102
{ACAD_REACTORS
330
C
102
}
330
C
100
AcDbDictionary
281
     1
  3
CANNOSCALE
350
6D5
  3
CMLEADERSTYLE
350
6D3
  3
CTABLESTYLE
350
6D2
  3
DIMADEC
350
35
  3
LAYEREVAL
350
6D7
  3
LAYERNOTIFY
350
6D8
  3
LIGHTINGUNITS
350
6D6
  3
MSLTSCALE
350
6D4
  3
XCLIPFRAME
350
6D9
  0
DICTIONARY
  5
669
102
{ACAD_REACTORS
330
668
102
}
330
668
100
AcDbDictionary
281
     1
  0
XRECORD
  5
677
102
{ACAD_REACTORS
330
676
102
}
330
676
100
AcDbXrecord
280
     1
290
     1
  0
XRECORD
  5
679
102
{ACAD_REACTORS
330
678
102
}
330
678
100
AcDbXrecord
280
     1
290
     1
  0
XRECORD
  5
67B
102
{ACAD_REACTORS
330
67A
102
}
330
67A
100
AcDbXrecord
280
     1
290
     1
  0
LAYOUT
  5
57A
102
{ACAD_REACTORS
330
577
102
}
330
577
100
AcDbPlotSettings
  1

  2
\\CLOPAY\rus_engrec_pq
  4

  6

 40
0.0
 41
0.0
 42
0.0
 43
0.0
 44
0.0
 45
0.0
 46
0.0
 47
0.0
 48
0.0
 49
0.0
140
0.0
141
0.0
142
1.0
143
1.0
 70
   688
 72
     0
 73
     0
 74
     5
  7
monochrome.ctb
 75
    16
147
1.0
 76
     0
 77
     2
 78
   300
148
0.0
149
0.0
100
AcDbLayout
  1
Layout1
 70
     0
 71
     1
 10
0.0
 20
0.0
 11
12.0
 21
9.0
 12
0.0
 22
0.0
 32
0.0
 14
1.000000000000000E+20
 24
1.000000000000000E+20
 34
1.000000000000000E+20
 15
-1.000000000000000E+20
 25
-1.000000000000000E+20
 35
-1.000000000000000E+20
146
0.0
 13
0.0
 23
0.0
 33
0.0
 16
1.0
 26
0.0
 36
0.0
 17
0.0
 27
1.0
 37
0.0
 76
     0
330
14
  0
LAYOUT
  5
579
102
{ACAD_XDICTIONARY
360
694
102
}
102
{ACAD_REACTORS
330
577
102
}
330
577
100
AcDbPlotSettings
  1

  2
PrimoPDF
  4
Letter
  6

 40
3.174999952316284
 41
3.174999952316284
 42
3.175003051757812
 43
3.17498779296875
 44
215.8999938964844
 45
279.3999938964844
 46
7.060968761747693
 47
0.0
 48
-0.1751185072646076
 49
0.7331083319262484
140
10.47488149273539
141
8.355553750317612
142
1.0
143
0.9906976521004256
 70
 11956
 72
     0
 73
     1
 74
     4
  7
monochrome.ctb
 75
     0
147
1.00938969410077
 76
     0
 77
     2
 78
   300
148
4.448010084521033
149
-18.62095163092671
100
AcDbLayout
  1
Model
 70
     1
 71
     0
 10
0.0
 20
0.0
 11
12.0
 21
9.0
 12
0.0
 22
0.0
 32
0.0
 14
0.0
 24
0.0
 34
0.0
 15
0.0
 25
0.0
 35
0.0
146
0.0
 13
0.0
 23
0.0
 33
0.0
 16
1.0
 26
0.0
 36
0.0
 17
0.0
 27
1.0
 37
0.0
 76
     0
330
17
331
60F
1001
ACAD_PSEXT
1000
PrimoPDF
1000
PrimoPDF
1000
PrimoPort:
1000

1070
     0
  0
MATERIAL
  5
61A
102
{ACAD_XDICTIONARY
360
61B
102
}
102
{ACAD_REACTORS
330
611
102
}
330
611
100
AcDbMaterial
  1
ByBlock
 72
     0
 43
0.0208333333333333
 43
0.0
 43
0.0
 43
0.0
 43
0.0
 43
0.0208333333333333
 43
0.0
 43
0.0
 43
0.0
 43
0.0
 43
1.0
 43
0.0
 43
0.0
 43
0.0
 43
0.0
 43
1.0
 77
     0
 47
0.0208333333333333
 47
0.0
 47
0.0
 47
0.0
 47
0.0
 47
0.0208333333333333
 47
0.0
 47
0.0
 47
0.0
 47
0.0
 47
1.0
 47
0.0
 47
0.0
 47
0.0
 47
0.0
 47
1.0
171
     0
 49
0.0208333333333333
 49
0.0
 49
0.0
 49
0.0
 49
0.0
 49
0.0208333333333333
 49
0.0
 49
0.0
 49
0.0
 49
0.0
 49
1.0
 49
0.0
 49
0.0
 49
0.0
 49
0.0
 49
1.0
175
     0
142
0.0208333333333333
142
0.0
142
0.0
142
0.0
142
0.0
142
0.0208333333333333
142
0.0
142
0.0
142
0.0
142
0.0
142
1.0
142
0.0
142
0.0
142
0.0
142
0.0
142
1.0
179
     0
144
0.0208333333333333
144
0.0
144
0.0
144
0.0
144
0.0
144
0.0208333333333333
144
0.0
144
0.0
144
0.0
144
0.0
144
1.0
144
0.0
144
0.0
144
0.0
144
0.0
144
1.0
147
0.0208333333333333
147
0.0
147
0.0
147
0.0
147
0.0
147
0.0208333333333333
147
0.0
147
0.0
147
0.0
147
0.0
147
1.0
147
0.0
147
0.0
147
0.0
147
0.0
147
1.0
  0
MATERIAL
  5
612
102
{ACAD_XDICTIONARY
360
613
102
}
102
{ACAD_REACTORS
330
611
102
}
330
611
100
AcDbMaterial
  1
ByLayer
 72
     0
 43
0.0208333333333333
 43
0.0
 43
0.0
 43
0.0
 43
0.0
 43
0.0208333333333333
 43
0.0
 43
0.0
 43
0.0
 43
0.0
 43
1.0
 43
0.0
 43
0.0
 43
0.0
 43
0.0
 43
1.0
 77
     0
 47
0.0208333333333333
 47
0.0
 47
0.0
 47
0.0
 47
0.0
 47
0.0208333333333333
 47
0.0
 47
0.0
 47
0.0
 47
0.0
 47
1.0
 47
0.0
 47
0.0
 47
0.0
 47
0.0
 47
1.0
171
     0
 49
0.0208333333333333
 49
0.0
 49
0.0
 49
0.0
 49
0.0
 49
0.0208333333333333
 49
0.0
 49
0.0
 49
0.0
 49
0.0
 49
1.0
 49
0.0
 49
0.0
 49
0.0
 49
0.0
 49
1.0
175
     0
142
0.0208333333333333
142
0.0
142
0.0
142
0.0
142
0.0
142
0.0208333333333333
142
0.0
142
0.0
142
0.0
142
0.0
142
1.0
142
0.0
142
0.0
142
0.0
142
0.0
142
1.0
179
     0
144
0.0208333333333333
144
0.0
144
0.0
144
0.0
144
0.0
144
0.0208333333333333
144
0.0
144
0.0
144
0.0
144
0.0
144
1.0
144
0.0
144
0.0
144
0.0
144
0.0
144
1.0
147
0.0208333333333333
147
0.0
147
0.0
147
0.0
147
0.0
147
0.0208333333333333
147
0.0
147
0.0
147
0.0
147
0.0
147
1.0
147
0.0
147
0.0
147
0.0
147
0.0
147
1.0
  0
MATERIAL
  5
622
102
{ACAD_XDICTIONARY
360
623
102
}
102
{ACAD_REACTORS
330
611
102
}
330
611
100
AcDbMaterial
  1
Global
 72
     0
 43
0.0208333333333333
 43
0.0
 43
0.0
 43
0.0
 43
0.0
 43
0.0208333333333333
 43
0.0
 43
0.0
 43
0.0
 43
0.0
 43
1.0
 43
0.0
 43
0.0
 43
0.0
 43
0.0
 43
1.0
 77
     0
 47
0.0208333333333333
 47
0.0
 47
0.0
 47
0.0
 47
0.0
 47
0.0208333333333333
 47
0.0
 47
0.0
 47
0.0
 47
0.0
 47
1.0
 47
0.0
 47
0.0
 47
0.0
 47
0.0
 47
1.0
171
     0
 49
0.0208333333333333
 49
0.0
 49
0.0
 49
0.0
 49
0.0
 49
0.0208333333333333
 49
0.0
 49
0.0
 49
0.0
 49
0.0
 49
1.0
 49
0.0
 49
0.0
 49
0.0
 49
0.0
 49
1.0
175
     0
142
0.0208333333333333
142
0.0
142
0.0
142
0.0
142
0.0
142
0.0208333333333333
142
0.0
142
0.0
142
0.0
142
0.0
142
1.0
142
0.0
142
0.0
142
0.0
142
0.0
142
1.0
179
     0
144
0.0208333333333333
144
0.0
144
0.0
144
0.0
144
0.0
144
0.0208333333333333
144
0.0
144
0.0
144
0.0
144
0.0
144
1.0
144
0.0
144
0.0
144
0.0
144
0.0
144
1.0
147
0.0208333333333333
147
0.0
147
0.0
147
0.0
147
0.0
147
0.0208333333333333
147
0.0
147
0.0
147
0.0
147
0.0
147
1.0
147
0.0
147
0.0
147
0.0
147
0.0
147
1.0
  0
MLEADERSTYLE
  5
659
102
{ACAD_REACTORS
330
658
102
}
330
658
100
AcDbMLeaderStyle
170
     2
171
     1
172
     0
 90
        2
 40
0.0
 41
0.0
173
     1
 91
-1056964608
340
11
 92
       -2
290
     1
 42
0.09
291
     1
 43
0.36
  3
Standard
 44
0.18
300

342
F
174
     1
178
     6
175
     1
176
     0
 93
-1056964608
 45
0.18
292
     0
297
     0
 46
0.18
 94
-1056964608
 47
1.0
 49
1.0
140
1.0
293
     1
141
0.0
294
     1
177
     0
142
1.0
295
     0
296
     0
143
0.125
1001
ACAD_MLEADERVER
1070
     2
  0
MLINESTYLE
  5
1B
102
{ACAD_REACTORS
330
1A
102
}
330
1A
100
AcDbMlineStyle
  2
STANDARD
 70
     0
  3

 62
   256
 51
90.0
 52
90.0
 71
     2
 49
0.5
 62
   256
  6
BYLAYER
 49
-0.5
 62
   256
  6
BYLAYER
  0
ACDBPLACEHOLDER
  5
576
102
{ACAD_REACTORS
330
575
102
}
330
575
  0
SCALE
  5
647
102
{ACAD_REACTORS
330
646
102
}
330
646
100
AcDbScale
 70
     0
300
1:1
140
1.0
141
1.0
290
     1
  0
SCALE
  5
648
102
{ACAD_REACTORS
330
646
102
}
330
646
100
AcDbScale
 70
     0
300
1/128" = 1'-0"
140
0.0078125
141
12.0
290
     0
  0
SCALE
  5
649
102
{ACAD_REACTORS
330
646
102
}
330
646
100
AcDbScale
 70
     0
300
1/64" = 1'-0"
140
0.015625
141
12.0
290
     0
  0
SCALE
  5
64A
102
{ACAD_REACTORS
330
646
102
}
330
646
100
AcDbScale
 70
     0
300
1/32" = 1'-0"
140
0.03125
141
12.0
290
     0
  0
SCALE
  5
64B
102
{ACAD_REACTORS
330
646
102
}
330
646
100
AcDbScale
 70
     0
300
1/16" = 1'-0"
140
0.0625
141
12.0
290
     0
  0
SCALE
  5
64C
102
{ACAD_REACTORS
330
646
102
}
330
646
100
AcDbScale
 70
     0
300
3/32" = 1'-0"
140
0.09375
141
12.0
290
     0
  0
SCALE
  5
64D
102
{ACAD_REACTORS
330
646
102
}
330
646
100
AcDbScale
 70
     0
300
1/8" = 1'-0"
140
0.125
141
12.0
290
     0
  0
SCALE
  5
64E
102
{ACAD_REACTORS
330
646
102
}
330
646
100
AcDbScale
 70
     0
300
3/16" = 1'-0"
140
0.1875
141
12.0
290
     0
  0
SCALE
  5
64F
102
{ACAD_REACTORS
330
646
102
}
330
646
100
AcDbScale
 70
     0
300
1/4" = 1'-0"
140
0.25
141
12.0
290
     0
  0
SCALE
  5
650
102
{ACAD_REACTORS
330
646
102
}
330
646
100
AcDbScale
 70
     0
300
3/8" = 1'-0"
140
0.375
141
12.0
290
     0
  0
SCALE
  5
651
102
{ACAD_REACTORS
330
646
102
}
330
646
100
AcDbScale
 70
     0
300
1/2" = 1'-0"
140
0.5
141
12.0
290
     0
  0
SCALE
  5
652
102
{ACAD_REACTORS
330
646
102
}
330
646
100
AcDbScale
 70
     0
300
3/4" = 1'-0"
140
0.75
141
12.0
290
     0
  0
SCALE
  5
653
102
{ACAD_REACTORS
330
646
102
}
330
646
100
AcDbScale
 70
     0
300
1" = 1'-0"
140
1.0
141
12.0
290
     0
  0
SCALE
  5
654
102
{ACAD_REACTORS
330
646
102
}
330
646
100
AcDbScale
 70
     0
300
1-1/2" = 1'-0"
140
1.5
141
12.0
290
     0
  0
SCALE
  5
655
102
{ACAD_REACTORS
330
646
102
}
330
646
100
AcDbScale
 70
     0
300
3" = 1'-0"
140
3.0
141
12.0
290
     0
  0
SCALE
  5
656
102
{ACAD_REACTORS
330
646
102
}
330
646
100
AcDbScale
 70
     0
300
6" = 1'-0"
140
6.0
141
12.0
290
     0
  0
SCALE
  5
657
102
{ACAD_REACTORS
330
646
102
}
330
646
100
AcDbScale
 70
     0
300
1'-0" = 1'-0"
140
12.0
141
12.0
290
     0
  0
TABLESTYLE
  5
645
102
{ACAD_XDICTIONARY
360
6DA
102
}
102
{ACAD_REACTORS
330
644
102
}
330
644
100
AcDbTableStyle
  3
Standard
 70
     0
 71
     0
 40
0.06
 41
0.06
280
     0
281
     0
  7
STANDARD
140
0.18
170
     2
 62
     0
 63
     7
283
     0
 90
      512
 91
        0
  1

274
    -2
284
     1
 64
     0
275
    -2
285
     1
 65
     0
276
    -2
286
     1
 66
     0
277
    -2
287
     1
 67
     0
278
    -2
288
     1
 68
     0
279
    -2
289
     1
 69
     0
  7
STANDARD
140
0.25
170
     5
 62
     0
 63
     7
283
     0
 90
      512
 91
        0
  1

274
    -2
284
     1
 64
     0
275
    -2
285
     1
 65
     0
276
    -2
286
     1
 66
     0
277
    -2
287
     1
 67
     0
278
    -2
288
     1
 68
     0
279
    -2
289
     1
 69
     0
  7
STANDARD
140
0.18
170
     5
 62
     0
 63
     7
283
     0
 90
      512
 91
        0
  1

274
    -2
284
     1
 64
     0
275
    -2
285
     1
 65
     0
276
    -2
286
     1
 66
     0
277
    -2
287
     1
 67
     0
278
    -2
288
     1
 68
     0
279
    -2
289
     1
 69
     0
  0
VISUALSTYLE
  5
630
102
{ACAD_XDICTIONARY
360
6E7
102
}
102
{ACAD_REACTORS
330
62A
102
}
330
62A
100
AcDbVisualStyle
  2
2dWireframe
 70
     4
 71
     0
 72
     2
 73
     0
 90
        0
 40
-0.6
 41
-30.0
 62
     5
 63
     7
421
 16777215
 74
     1
 91
        4
 64
     7
 65
   257
 75
     1
175
     1
 42
1.0
 92
        0
 66
   257
 43
1.0
 76
     1
 77
     6
 78
     2
 67
     7
 79
     5
170
     0
171
     0
290
     0
174
     0
 93
        1
 44
0.0
173
     0
291
     0
 45
0.0
1001
ACAD
1000
AcDbSavedByObjectVersion
1070
     0
  0
VISUALSTYLE
  5
62F
102
{ACAD_XDICTIONARY
360
6E5
102
}
102
{ACAD_REACTORS
330
62A
102
}
330
62A
100
AcDbVisualStyle
  2
Basic
 70
     7
 71
     1
 72
     0
 73
     1
 90
        0
 40
-0.6
 41
-30.0
 62
     5
 63
     7
421
 16777215
 74
     0
 91
        4
 64
     7
 65
   257
 75
     1
175
     1
 42
1.0
 92
        8
 66
     7
 43
1.0
 76
     1
 77
     6
 78
     2
 67
     7
 79
     5
170
     0
171
     0
290
     0
174
     0
 93
        1
 44
0.0
173
     0
291
     1
 45
0.0
1001
ACAD
1000
AcDbSavedByObjectVersion
1070
     0
  0
VISUALSTYLE
  5
636
102
{ACAD_XDICTIONARY
360
6F3
102
}
102
{ACAD_REACTORS
330
62A
102
}
330
62A
100
AcDbVisualStyle
  2
Brighten
 70
    12
 71
     2
 72
     2
 73
     0
 90
        0
 40
-0.6
 41
-30.0
 62
     5
 63
     7
421
 16777215
 74
     1
 91
        4
 64
     7
 65
   257
 75
     1
175
     1
 42
1.0
 92
        8
 66
     7
 43
1.0
 76
     1
 77
     6
 78
     2
 67
     7
 79
     5
170
     0
171
     0
290
     0
174
     0
 93
        1
 44
50.0
173
     0
291
     1
 45
0.0
1001
ACAD
1000
AcDbSavedByObjectVersion
1070
     0
  0
VISUALSTYLE
  5
63A
102
{ACAD_XDICTIONARY
360
6FB
102
}
102
{ACAD_REACTORS
330
62A
102
}
330
62A
100
AcDbVisualStyle
  2
ColorChange
 70
    16
 71
     2
 72
     2
 73
     3
 90
        0
 40
-0.6
 41
-30.0
 62
     5
 63
     8
421
  8421504
 74
     1
 91
        4
 64
     7
 65
   257
 75
     1
175
     1
 42
1.0
 92
        8
 66
     8
424
  8421504
 43
1.0
 76
     1
 77
     6
 78
     2
 67
     7
 79
     5
170
     0
171
     0
290
     0
174
     0
 93
        1
 44
0.0
173
     0
291
     1
 45
0.0
1001
ACAD
1000
AcDbSavedByObjectVersion
1070
     0
  0
VISUALSTYLE
  5
633
102
{ACAD_XDICTIONARY
360
6ED
102
}
102
{ACAD_REACTORS
330
62A
102
}
330
62A
100
AcDbVisualStyle
  2
Conceptual
 70
     9
 71
     3
 72
     2
 73
     0
 90
        0
 40
-0.6
 41
-30.0
 62
     5
 63
     7
421
 16777215
 74
     2
 91
        2
 64
     7
 65
   257
 75
     1
175
     1
 42
179.0
 92
        8
 66
     7
 43
1.0
 76
     1
 77
     6
 78
     2
 67
     7
 79
     3
170
     0
171
     0
290
     0
174
     0
 93
        1
 44
0.0
173
     0
291
     0
 45
0.0
1001
ACAD
1000
AcDbSavedByObjectVersion
1070
     0
  0
VISUALSTYLE
  5
635
102
{ACAD_XDICTIONARY
360
6F1
102
}
102
{ACAD_REACTORS
330
62A
102
}
330
62A
100
AcDbVisualStyle
  2
Dim
 70
    11
 71
     2
 72
     2
 73
     0
 90
        0
 40
-0.6
 41
-30.0
 62
     5
 63
     7
421
 16777215
 74
     1
 91
        4
 64
     7
 65
   257
 75
     1
175
     1
 42
1.0
 92
        8
 66
     7
 43
1.0
 76
     1
 77
     6
 78
     2
 67
     7
 79
     5
170
     0
171
     0
290
     0
174
     0
 93
        1
 44
-50.0
173
     0
291
     1
 45
0.0
1001
ACAD
1000
AcDbSavedByObjectVersion
1070
     0
  0
VISUALSTYLE
  5
642
102
{ACAD_XDICTIONARY
360
70B
102
}
102
{ACAD_REACTORS
330
62A
102
}
330
62A
100
AcDbVisualStyle
  2
EdgeColorOff
 70
    22
 71
     2
 72
     2
 73
     0
 90
        0
 40
-0.6
 41
-30.0
 62
     5
 63
     7
421
 16777215
 74
     1
 91
        4
 64
     7
 65
   257
 75
     1
175
     1
 42
1.0
 92
        8
 66
     7
 43
1.0
 76
     1
 77
     6
 78
     2
 67
     7
 79
     5
170
     0
171
     0
290
     0
174
     0
 93
        1
 44
0.0
173
     0
291
     1
 45
0.0
1001
ACAD
1000
AcDbSavedByObjectVersion
1070
     0
  0
VISUALSTYLE
  5
639
102
{ACAD_XDICTIONARY
360
6F9
102
}
102
{ACAD_REACTORS
330
62A
102
}
330
62A
100
AcDbVisualStyle
  2
Facepattern
 70
    15
 71
     2
 72
     2
 73
     0
 90
        0
 40
-0.6
 41
-30.0
 62
     5
 63
     7
421
 16777215
 74
     1
 91
        4
 64
     7
 65
   257
 75
     1
175
     1
 42
1.0
 92
        8
 66
     7
 43
1.0
 76
     1
 77
     6
 78
     2
 67
     7
 79
     5
170
     0
171
     0
290
     0
174
     0
 93
        1
 44
0.0
173
     0
291
     1
 45
0.0
1001
ACAD
1000
AcDbSavedByObjectVersion
1070
     0
  0
VISUALSTYLE
  5
62B
102
{ACAD_XDICTIONARY
360
6DD
102
}
102
{ACAD_REACTORS
330
62A
102
}
330
62A
100
AcDbVisualStyle
  2
Flat
 70
     0
 71
     2
 72
     1
 73
     1
 90
        2
 40
-0.6
 41
30.0
 62
     5
 63
     7
421
 16777215
 74
     0
 91
        0
 64
     7
 65
   257
 75
     1
175
     1
 42
1.0
 92
        8
 66
     7
 43
1.0
 76
     1
 77
     6
 78
     2
 67
     7
 79
     5
170
     0
171
     0
290
     0
174
     0
 93
       13
 44
0.0
173
     0
291
     1
 45
0.0
1001
ACAD
1000
AcDbSavedByObjectVersion
1070
     0
  0
VISUALSTYLE
  5
62C
102
{ACAD_XDICTIONARY
360
6DF
102
}
102
{ACAD_REACTORS
330
62A
102
}
330
62A
100
AcDbVisualStyle
  2
FlatWithEdges
 70
     1
 71
     2
 72
     1
 73
     1
 90
        2
 40
-0.6
 41
30.0
 62
     5
 63
     7
421
 16777215
 74
     1
 91
        0
 64
     7
 65
   257
 75
     1
175
     1
 42
1.0
 92
        0
 66
   257
 43
1.0
 76
     1
 77
     6
 78
     2
 67
     7
 79
     5
170
     0
171
     0
290
     0
174
     0
 93
       13
 44
0.0
173
     0
291
     1
 45
0.0
1001
ACAD
1000
AcDbSavedByObjectVersion
1070
     0
  0
VISUALSTYLE
  5
62D
102
{ACAD_XDICTIONARY
360
6E1
102
}
102
{ACAD_REACTORS
330
62A
102
}
330
62A
100
AcDbVisualStyle
  2
Gouraud
 70
     2
 71
     2
 72
     2
 73
     1
 90
        2
 40
-0.6
 41
30.0
 62
     5
 63
     7
421
 16777215
 74
     0
 91
        0
 64
     7
 65
   257
 75
     1
175
     1
 42
1.0
 92
        0
 66
     7
 43
1.0
 76
     1
 77
     6
 78
     2
 67
     7
 79
     5
170
     0
171
     0
290
     0
174
     0
 93
       13
 44
0.0
173
     0
291
     1
 45
0.0
1001
ACAD
1000
AcDbSavedByObjectVersion
1070
     0
  0
VISUALSTYLE
  5
62E
102
{ACAD_XDICTIONARY
360
6E3
102
}
102
{ACAD_REACTORS
330
62A
102
}
330
62A
100
AcDbVisualStyle
  2
GouraudWithEdges
 70
     3
 71
     2
 72
     2
 73
     1
 90
        2
 40
-0.6
 41
30.0
 62
     5
 63
     7
421
 16777215
 74
     1
 91
        0
 64
     7
 65
   257
 75
     1
175
     1
 42
1.0
 92
        0
 66
   257
 43
1.0
 76
     1
 77
     6
 78
     2
 67
     7
 79
     5
170
     0
171
     0
290
     0
174
     0
 93
       13
 44
0.0
173
     0
291
     1
 45
0.0
1001
ACAD
1000
AcDbSavedByObjectVersion
1070
     0
  0
VISUALSTYLE
  5
632
102
{ACAD_XDICTIONARY
360
6EB
102
}
102
{ACAD_REACTORS
330
62A
102
}
330
62A
100
AcDbVisualStyle
  2
Hidden
 70
     6
 71
     1
 72
     2
 73
     2
 90
        0
 40
-0.6
 41
-30.0
 62
     5
 63
     7
421
 16777215
 74
     2
 91
        2
 64
     7
 65
   257
 75
     2
175
     1
 42
40.0
 92
        0
 66
   257
 43
1.0
 76
     1
 77
     6
 78
     2
 67
     7
 79
     3
170
     0
171
     0
290
     0
174
     0
 93
        1
 44
0.0
173
     0
291
     0
 45
0.0
1001
ACAD
1000
AcDbSavedByObjectVersion
1070
     0
  0
VISUALSTYLE
  5
640
102
{ACAD_XDICTIONARY
360
707
102
}
102
{ACAD_REACTORS
330
62A
102
}
330
62A
100
AcDbVisualStyle
  2
JitterOff
 70
    20
 71
     2
 72
     2
 73
     0
 90
        0
 40
-0.6
 41
-30.0
 62
     5
 63
     7
421
 16777215
 74
     1
 91
        4
 64
     7
 65
   257
 75
     1
175
     1
 42
1.0
 92
       10
 66
     7
 43
1.0
 76
     1
 77
     6
 78
     2
 67
     7
 79
     5
170
     0
171
     0
290
     0
174
     0
 93
        1
 44
0.0
173
     0
291
     1
 45
0.0
1001
ACAD
1000
AcDbSavedByObjectVersion
1070
     0
  0
VISUALSTYLE
  5
638
102
{ACAD_XDICTIONARY
360
6F7
102
}
102
{ACAD_REACTORS
330
62A
102
}
330
62A
100
AcDbVisualStyle
  2
Linepattern
 70
    14
 71
     2
 72
     2
 73
     0
 90
        0
 40
-0.6
 41
-30.0
 62
     5
 63
     7
421
 16777215
 74
     1
 91
        4
 64
     7
 65
   257
 75
     7
175
     7
 42
1.0
 92
        8
 66
     7
 43
1.0
 76
     1
 77
     6
 78
     2
 67
     7
 79
     5
170
     0
171
     0
290
     0
174
     0
 93
        1
 44
0.0
173
     0
291
     1
 45
0.0
1001
ACAD
1000
AcDbSavedByObjectVersion
1070
     0
  0
VISUALSTYLE
  5
641
102
{ACAD_XDICTIONARY
360
709
102
}
102
{ACAD_REACTORS
330
62A
102
}
330
62A
100
AcDbVisualStyle
  2
OverhangOff
 70
    21
 71
     2
 72
     2
 73
     0
 90
        0
 40
-0.6
 41
-30.0
 62
     5
 63
     7
421
 16777215
 74
     1
 91
        4
 64
     7
 65
   257
 75
     1
175
     1
 42
1.0
 92
        9
 66
     7
 43
1.0
 76
     1
 77
     6
 78
     2
 67
     7
 79
     5
170
     0
171
     0
290
     0
174
     0
 93
        1
 44
0.0
173
     0
291
     1
 45
0.0
1001
ACAD
1000
AcDbSavedByObjectVersion
1070
     0
  0
VISUALSTYLE
  5
634
102
{ACAD_XDICTIONARY
360
6EF
102
}
102
{ACAD_REACTORS
330
62A
102
}
330
62A
100
AcDbVisualStyle
  2
Realistic
 70
     8
 71
     2
 72
     3
 73
     0
 90
        2
 40
-0.6
 41
30.0
 62
     5
 63
     7
421
 16777215
 74
     0
 91
        0
 64
     7
 65
   257
 75
     1
175
     1
 42
1.0
 92
        8
 66
   257
 43
1.0
 76
     1
 77
     6
 78
     2
 67
     7
 79
     3
170
     0
171
     0
290
     0
174
     0
 93
       13
 44
0.0
173
     0
291
     0
 45
0.0
1001
ACAD
1000
AcDbSavedByObjectVersion
1070
     0
  0
VISUALSTYLE
  5
63F
102
{ACAD_XDICTIONARY
360
705
102
}
102
{ACAD_REACTORS
330
62A
102
}
330
62A
100
AcDbVisualStyle
  2
Shaded
 70
    27
 71
     2
 72
     2
 73
     1
 90
        2
 40
-0.6
 41
30.0
 62
     5
 63
     7
421
 16777215
 74
     0
 91
        4
 64
     7
 65
   257
 75
     1
175
     1
 42
1.0
 92
        8
 66
   257
 43
1.0
 76
     1
 77
     6
 78
     2
 67
     8
425
  7895160
 79
     3
170
     0
171
     0
290
     0
174
     0
 93
        5
 44
0.0
173
     0
291
     0
 45
0.0
1001
ACAD
1000
AcDbSavedByObjectVersion
1070
     0
  0
VISUALSTYLE
  5
63E
102
{ACAD_XDICTIONARY
360
703
102
}
102
{ACAD_REACTORS
330
62A
102
}
330
62A
100
AcDbVisualStyle
  2
Shaded with edges
 70
    26
 71
     2
 72
     2
 73
     1
 90
        2
 40
-0.6
 41
30.0
 62
     5
 63
     7
421
 16777215
 74
     1
 91
       10
 64
     7
 65
   257
 75
     2
175
     1
 42
1.0
 92
        8
 66
   257
 43
1.0
 76
     1
 77
     6
 78
     2
 67
     7
 79
     3
170
     0
171
     0
290
     0
174
     0
 93
        5
 44
0.0
173
     0
291
     0
 45
0.0
1001
ACAD
1000
AcDbSavedByObjectVersion
1070
     0
  0
VISUALSTYLE
  5
63B
102
{ACAD_XDICTIONARY
360
6FD
102
}
102
{ACAD_REACTORS
330
62A
102
}
330
62A
100
AcDbVisualStyle
  2
Shades of Gray
 70
    23
 71
     2
 72
     2
 73
     3
 90
        0
 40
-0.6
 41
-30.0
 62
     5
 63
     7
421
 16777215
 74
     2
 91
        2
 64
     7
 65
     7
 75
     1
175
     1
 42
40.0
 92
        8
 66
     7
 43
1.0
 76
     1
 77
     6
 78
     2
 67
     7
 79
     3
170
     0
171
     0
290
     0
174
     0
 93
        1
 44
0.0
173
     0
291
     0
 45
0.0
1001
ACAD
1000
AcDbSavedByObjectVersion
1070
     0
  0
VISUALSTYLE
  5
63C
102
{ACAD_XDICTIONARY
360
6FF
102
}
102
{ACAD_REACTORS
330
62A
102
}
330
62A
100
AcDbVisualStyle
  2
Sketchy
 70
    24
 71
     1
 72
     2
 73
     2
 90
        0
 40
-0.6
 41
-30.0
 62
     5
 63
     7
421
 16777215
 74
     2
 91
        2
 64
     7
 65
     7
 75
     1
175
     1
 42
40.0
 92
       11
 66
     7
 43
1.0
 76
     1
 77
     6
 78
     2
 67
     7
 79
     6
170
     0
171
     0
290
     0
174
     0
 93
        1
 44
0.0
173
     0
291
     0
 45
0.0
1001
ACAD
1000
AcDbSavedByObjectVersion
1070
     0
  0
VISUALSTYLE
  5
637
102
{ACAD_XDICTIONARY
360
6F5
102
}
102
{ACAD_REACTORS
330
62A
102
}
330
62A
100
AcDbVisualStyle
  2
Thicken
 70
    13
 71
     2
 72
     2
 73
     0
 90
        0
 40
-0.6
 41
-30.0
 62
     5
 63
     7
421
 16777215
 74
     1
 91
        4
 64
     7
 65
   257
 75
     1
175
     1
 42
1.0
 92
       12
 66
     7
 43
1.0
 76
     1
 77
     6
 78
     2
 67
     7
 79
     5
170
     0
171
     0
290
     0
174
     0
 93
        1
 44
0.0
173
     0
291
     1
 45
0.0
1001
ACAD
1000
AcDbSavedByObjectVersion
1070
     0
  0
VISUALSTYLE
  5
631
102
{ACAD_XDICTIONARY
360
6E9
102
}
102
{ACAD_REACTORS
330
62A
102
}
330
62A
100
AcDbVisualStyle
  2
Wireframe
 70
     5
 71
     0
 72
     2
 73
     0
 90
        0
 40
-0.6
 41
-30.0
 62
     5
 63
     7
421
 16777215
 74
     1
 91
        4
 64
     7
 65
   257
 75
     1
175
     1
 42
1.0
 92
        0
 66
   257
 43
1.0
 76
     1
 77
     6
 78
     2
 67
     7
 79
     3
170
     0
171
     0
290
     0
174
     0
 93
        1
 44
0.0
173
     0
291
     0
 45
0.0
1001
ACAD
1000
AcDbSavedByObjectVersion
1070
     0
  0
VISUALSTYLE
  5
63D
102
{ACAD_XDICTIONARY
360
701
102
}
102
{ACAD_REACTORS
330
62A
102
}
330
62A
100
AcDbVisualStyle
  2
X-Ray
 70
    25
 71
     2
 72
     2
 73
     1
 90
        1
 40
0.5
 41
-30.0
 62
     5
 63
     7
421
 16777215
 74
     1
 91
        0
 64
     7
 65
   257
 75
     1
175
     1
 42
1.0
 92
        8
 66
     7
 43
1.0
 76
     1
 77
     6
 78
     2
 67
     7
 79
     3
170
     0
171
     0
290
     0
174
     0
 93
       13
 44
0.0
173
     0
291
     0
 45
0.0
1001
ACAD
1000
AcDbSavedByObjectVersion
1070
     0
  0
DICTIONARYVAR
  5
6D5
102
{ACAD_REACTORS
330
34
102
}
330
34
100
DictionaryVariables
280
     0
  1
1:1
  0
DICTIONARYVAR
  5
6D3
102
{ACAD_REACTORS
330
34
102
}
330
34
100
DictionaryVariables
280
     0
  1
STANDARD
  0
DICTIONARYVAR
  5
6D2
102
{ACAD_REACTORS
330
34
102
}
330
34
100
DictionaryVariables
280
     0
  1
STANDARD
  0
DICTIONARYVAR
  5
35
102
{ACAD_REACTORS
330
34
102
}
330
34
100
DictionaryVariables
280
     0
  1
0
  0
DICTIONARYVAR
  5
6D7
102
{ACAD_REACTORS
330
34
102
}
330
34
100
DictionaryVariables
280
     0
  1
1
  0
DICTIONARYVAR
  5
6D8
102
{ACAD_REACTORS
330
34
102
}
330
34
100
DictionaryVariables
280
     0
  1
15
  0
DICTIONARYVAR
  5
6D6
102
{ACAD_REACTORS
330
34
102
}
330
34
100
DictionaryVariables
280
     0
  1
0
  0
DICTIONARYVAR
  5
6D4
102
{ACAD_REACTORS
330
34
102
}
330
34
100
DictionaryVariables
280
     0
  1
0
  0
DICTIONARYVAR
  5
6D9
102
{ACAD_REACTORS
330
34
102
}
330
34
100
DictionaryVariables
280
     0
  1
2
  0
DICTIONARY
  5
694
330
579
100
AcDbDictionary
280
     1
281
     1
  3
ADSK_XREC_LAYOUTTHUMBNAIL
360
695
  0
DICTIONARY
  5
61B
330
61A
100
AcDbDictionary
280
     1
281
     1
  3
BUMPTILE
360
61D
  3
DIFFUSETILE
360
61C
  3
OPACITYTILE
360
620
  3
REFLECTIONTILE
360
61F
  3
REFRACTIONTILE
360
621
  3
SPECULARTILE
360
61E
  0
DICTIONARY
  5
613
330
612
100
AcDbDictionary
280
     1
281
     1
  3
BUMPTILE
360
615
  3
DIFFUSETILE
360
614
  3
OPACITYTILE
360
618
  3
REFLECTIONTILE
360
617
  3
REFRACTIONTILE
360
619
  3
SPECULARTILE
360
616
  0
DICTIONARY
  5
623
330
622
100
AcDbDictionary
280
     1
281
     1
  3
BUMPTILE
360
625
  3
DIFFUSETILE
360
624
  3
OPACITYTILE
360
628
  3
REFLECTIONTILE
360
627
  3
REFRACTIONTILE
360
629
  3
SPECULARTILE
360
626
  0
DICTIONARY
  5
6DA
330
645
100
AcDbDictionary
280
     1
281
     1
  3
ACAD_ROUNDTRIP_2008_TABLESTYLE_CELLSTYLEMAP
360
6DB
  0
DICTIONARY
  5
6E7
330
630
100
AcDbDictionary
280
     1
281
     1
  3
ACAD_XREC_ROUNDTRIP
360
6E8
  0
DICTIONARY
  5
6E5
330
62F
100
AcDbDictionary
280
     1
281
     1
  3
ACAD_XREC_ROUNDTRIP
360
6E6
  0
DICTIONARY
  5
6F3
330
636
100
AcDbDictionary
280
     1
281
     1
  3
ACAD_XREC_ROUNDTRIP
360
6F4
  0
DICTIONARY
  5
6FB
330
63A
100
AcDbDictionary
280
     1
281
     1
  3
ACAD_XREC_ROUNDTRIP
360
6FC
  0
DICTIONARY
  5
6ED
330
633
100
AcDbDictionary
280
     1
281
     1
  3
ACAD_XREC_ROUNDTRIP
360
6EE
  0
DICTIONARY
  5
6F1
330
635
100
AcDbDictionary
280
     1
281
     1
  3
ACAD_XREC_ROUNDTRIP
360
6F2
  0
DICTIONARY
  5
70B
330
642
100
AcDbDictionary
280
     1
281
     1
  3
ACAD_XREC_ROUNDTRIP
360
70C
  0
DICTIONARY
  5
6F9
330
639
100
AcDbDictionary
280
     1
281
     1
  3
ACAD_XREC_ROUNDTRIP
360
6FA
  0
DICTIONARY
  5
6DD
330
62B
100
AcDbDictionary
280
     1
281
     1
  3
ACAD_XREC_ROUNDTRIP
360
6DE
  0
DICTIONARY
  5
6DF
330
62C
100
AcDbDictionary
280
     1
281
     1
  3
ACAD_XREC_ROUNDTRIP
360
6E0
  0
DICTIONARY
  5
6E1
330
62D
100
AcDbDictionary
280
     1
281
     1
  3
ACAD_XREC_ROUNDTRIP
360
6E2
  0
DICTIONARY
  5
6E3
330
62E
100
AcDbDictionary
280
     1
281
     1
  3
ACAD_XREC_ROUNDTRIP
360
6E4
  0
DICTIONARY
  5
6EB
330
632
100
AcDbDictionary
280
     1
281
     1
  3
ACAD_XREC_ROUNDTRIP
360
6EC
  0
DICTIONARY
  5
707
330
640
100
AcDbDictionary
280
     1
281
     1
  3
ACAD_XREC_ROUNDTRIP
360
708
  0
DICTIONARY
  5
6F7
330
638
100
AcDbDictionary
280
     1
281
     1
  3
ACAD_XREC_ROUNDTRIP
360
6F8
  0
DICTIONARY
  5
709
330
641
100
AcDbDictionary
280
     1
281
     1
  3
ACAD_XREC_ROUNDTRIP
360
70A
  0
DICTIONARY
  5
6EF
330
634
100
AcDbDictionary
280
     1
281
     1
  3
ACAD_XREC_ROUNDTRIP
360
6F0
  0
DICTIONARY
  5
705
330
63F
100
AcDbDictionary
280
     1
281
     1
  3
ACAD_XREC_ROUNDTRIP
360
706
  0
DICTIONARY
  5
703
330
63E
100
AcDbDictionary
280
     1
281
     1
  3
ACAD_XREC_ROUNDTRIP
360
704
  0
DICTIONARY
  5
6FD
330
63B
100
AcDbDictionary
280
     1
281
     1
  3
ACAD_XREC_ROUNDTRIP
360
6FE
  0
DICTIONARY
  5
6FF
330
63C
100
AcDbDictionary
280
     1
281
     1
  3
ACAD_XREC_ROUNDTRIP
360
700
  0
DICTIONARY
  5
6F5
330
637
100
AcDbDictionary
280
     1
281
     1
  3
ACAD_XREC_ROUNDTRIP
360
6F6
  0
DICTIONARY
  5
6E9
330
631
100
AcDbDictionary
280
     1
281
     1
  3
ACAD_XREC_ROUNDTRIP
360
6EA
  0
DICTIONARY
  5
701
330
63D
100
AcDbDictionary
280
     1
281
     1
  3
ACAD_XREC_ROUNDTRIP
360
702
  0
XRECORD
  5
695
102
{ACAD_REACTORS
330
694
102
}
330
694
100
AcDbXrecord
280
     1
310
2800000000010000B0000000010008000000000000B00000000000000000000000010000000000000000000000000000FFFFFF000000000000000000000000000000000000000000000000000000000000000000330000006600000099000000CC000000FF00000000330000333300006633000099330000CC330000FF3300
310
0000660000336600006666000099660000CC660000FF66000000990000339900006699000099990000CC990000FF99000000CC000033CC000066CC000099CC0000CCCC0000FFCC000000FF000033FF000066FF000099FF0000CCFF0000FFFF000000003300330033006600330099003300CC003300FF003300003333003333
310
33006633330099333300CC333300FF33330000663300336633006666330099663300CC663300FF66330000993300339933006699330099993300CC993300FF99330000CC330033CC330066CC330099CC3300CCCC3300FFCC330000FF330033FF330066FF330099FF3300CCFF3300FFFF330000006600330066006600660099
310
006600CC006600FF00660000336600333366006633660099336600CC336600FF33660000666600336666006666660099666600CC666600FF66660000996600339966006699660099996600CC996600FF99660000CC660033CC660066CC660099CC6600CCCC6600FFCC660000FF660033FF660066FF660099FF6600CCFF6600
310
FFFF660000009900330099006600990099009900CC009900FF00990000339900333399006633990099339900CC339900FF33990000669900336699006666990099669900CC669900FF66990000999900339999006699990099999900CC999900FF99990000CC990033CC990066CC990099CC9900CCCC9900FFCC990000FF99
310
0033FF990066FF990099FF9900CCFF9900FFFF99000000CC003300CC006600CC009900CC00CC00CC00FF00CC000033CC003333CC006633CC009933CC00CC33CC00FF33CC000066CC003366CC006666CC009966CC00CC66CC00FF66CC000099CC003399CC006699CC009999CC00CC99CC00FF99CC0000CCCC0033CCCC0066CC
310
CC0099CCCC00CCCCCC00FFCCCC0000FFCC0033FFCC0066FFCC0099FFCC00CCFFCC00FFFFCC000000FF003300FF006600FF009900FF00CC00FF00FF00FF000033FF003333FF006633FF009933FF00CC33FF00FF33FF000066FF003366FF006666FF009966FF00CC66FF00FF66FF000099FF003399FF006699FF009999FF00CC
310
99FF00FF99FF0000CCFF0033CCFF0066CCFF0099CCFF00CCCCFF00FFCCFF0000FFFF0033FFFF0066FFFF0099FFFF00CCFFFF00FFFFFF00000000000D0D0D001A1A1A00282828003535350043434300505050005D5D5D006B6B6B00787878008686860093939300A1A1A100AEAEAE00BBBBBB00C9C9C900D6D6D600E4E4E400
310
F1F1F100FFFFFF000000000000000000000000000000000000000000000000000000000000000000000000000000000000000000000000000000000000000000000000000000000000000000000000000000000000000000000000000000000000000000000000000000000000000000000000000000000000000000000000
310
00000000000000000000000000000000000000000000000000000000000000000000000000000000000000000000000000000000000000000000000000000000000000000000000000000000000000000000000000000000000000000000000000000000000000000000000000000000000000000000000000000000000000
310
00000000000000000000000000000000000000000000000000000000000000000000000000000000000000000000000000000000000000000000000000000000000000000000000000000000F50000000000000000000000000000000000000000000000000000000000000000000000000000000000000000000000000000
310
00000000000000000000000000000000000000000000000000000000000000000000000000000000000000000000000000000000000000000000000000000000000000000000000000000000000000000000000000000000000000000000000000000000000000000000000000000000000000000000000000000000000000
310
00000000000000000000000000000000000000000000000000F500000000000000000000000000000000000000000000000000000000000000000000000000000000000000000000000000000000F5000000000000000000000000000000000000000000000000000000000000000000000000000000000000000000000000
310
00000000000000000000000000000000000000000000000000000000000000000000000000000000000000000000000000000000000000000000000000000000000000000000000000000000000000000000000000000000000000000000000000000000000000000000000000000000000000000000000000000000000000
310
000000000000000000000000000000000000000000000000000000F500000000000000000000000000000000000000000000000000000000000000000000000000000000000000000000000000000000F500000000000000000000000000000000000000000000000000000000000000000000000000000000000000000000
310
00000000000000000000000000000000000000000000000000000000000000000000000000000000000000000000000000000000000000000000000000000000000000000000000000000000000000000000000000000000000000000000000000000000000000000000000000000000000000000000000000000000000000
310
0000000000000000000000000000000000000000000000000000000000F500000000000000000000000000000000000000000000000000000000000000000000000000000000000000000000000000000000000000000000000000000000000000000000000000000000000000000000000000000000000000000000000000
310
00000000000000000000000000000000000000000000000000000000000000000000000000000000000000000000000000000000000000000000000000000000000000000000000000000000000000000000000000000000000000000000000000000000000000000000000000000000000000000000000000000000000000
310
000000000000000000000000000000000000000000000000000000000000000000000000000000000000000000000000000000000000000000000000000000000000000000000000000000000000000000000000F5000000000000000000000000000000000000000000000000000000000000000000000000000000000000
310
00000000000000000000000000000000000000000000000000000000000000000000000000000000000000000000000000000000000000000000000000000000000000000000000000000000000000000000000000000000000000000000000000000000000000000000000000000000000000000000000000000000000000
310
000000000000000000000000000000000000000000000000000000000000000000F500000000000000000000000000000000000000000000000000000000000000000000000000000000000000000000000000000000F500000000000000000000000000000000000000000000000000000000000000000000000000000000
310
00000000000000000000000000000000000000000000000000000000000000000000000000000000000000000000000000000000000000000000000000000000000000000000000000000000000000000000000000000000000000000000000000000000000000000000000000000000000000000000000000000000000000
310
0000000000000000000000000000000000000000000000000000000000000000000000F500000000000000000000000000000000000000000000000000000000000000000000000000000000000000000000000000000000F50000000000000000000000000000000000000000000000000000000000000000000000000000
310
00000000000000000000000000000000000000000000000000000000000000000000000000000000000000000000000000000000000000000000000000000000000000000000000000000000000000000000000000000000000000000000000000000000000000000000000000000000000000000000000000000000000000
310
00000000000000000000000000000000000000000000000000000000000000000000000000F500000000000000000000000000000000000000000000000000000000000000000000000000000000000000000000000000000000F5000000000000000000000000000000000000000000000000000000000000000000000000
310
00000000000000000000000000000000000000000000000000000000000000000000000000000000000000000000000000000000000000000000000000000000000000000000000000000000000000000000000000000000000000000000000000000000000000000000000000000000000000000000000000000000000000
310
000000000000000000000000000000000000000000000000000000000000000000000000000000F500000000000000000000000000000000000000000000000000000000000000000000000000000000000000000000000000000000F500000000000000000000000000000000000000000000000000000000000000000000
310
00000000000000000000000000000000000000000000000000000000000000000000000000000000000000000000000000000000000000000000000000000000000000000000000000000000000000000000000000000000000000000000000000000000000000000000000000000000000000000000000000000000000000
310
0000000000000000000000000000000000000000000000000000000000000000000000000000000000F500000000000000000000000000000000000000000000000000000000000000000000000000000000000000F5F5F5F5F5F5F5F5F5F5F5F5F5F5F500F5F5F5F500000000000000000000000000000000000000000000
310
00000000000000000000000000000000000000000000000000000000000000000000000000000000000000000000000000000000000000000000000000000000000000000000000000000000000000000000000000000000000000000000000000000000000000000000000000000000000000000000000000000000000000
310
000000000000000000000000000000000000000000000000000000000000000000F5F5F5F500F5F5F5F5F5F5F5F5F5F5F5F5F5F5F500000000000000000000000000000000000000000000000000000000000000000000000000000000000000F5000000000000000000000000000000000000000000000000000000000000
310
00000000000000000000000000000000000000000000000000000000000000000000000000000000000000000000000000000000000000000000000000000000000000000000000000000000000000000000000000000000000000000000000000000000000000000000000000000000000000000000000000000000000000
310
000000000000000000000000000000000000000000000000000000000000000000000000000000000000000000F500000000000000000000000000000000000000000000000000000000000000000000000000000000000000000000000000000000F500000000000000000000000000000000000000000000000000000000
310
00000000000000000000000000000000000000000000000000000000000000000000000000000000000000000000000000000000000000000000000000000000000000000000000000000000000000000000000000000000000000000000000000000000000000000000000000000000000000000000000000000000000000
310
0000000000000000000000000000000000000000000000000000000000000000000000000000000000000000000000F500000000000000000000000000000000000000000000000000000000000000000000000000000000000000000000000000000000F50000000000000000000000000000000000000000000000000000
310
00000000000000000000000000000000000000000000000000000000000000000000000000000000000000000000000000000000000000000000000000000000000000000000000000000000000000000000000000000000000000000000000000000000000000000000000000000000000000000000000000000000000000
310
00000000000000000000000000000000000000000000000000000000000000000000000000000000000000000000000000F500000000000000000000000000000000000000000000000000000000000000000000000000000000000000000000000000000000F5000000000000000000000000000000000000000000000000
310
00000000000000000000000000000000000000000000000000000000000000000000000000000000000000000000000000000000000000000000000000000000000000000000000000000000000000000000000000000000000000000000000000000000000000000000000000000000000000000000000000000000000000
310
000000000000000000000000000000000000000000000000000000000000000000000000000000000000000000000000000000F500000000000000000000000000000000000000000000000000000000000000000000000000000000000000000000000000000000F500000000000000000000000000000000000000000000
310
00000000000000000000000000000000000000000000000000000000000000000000000000000000000000000000000000000000000000000000000000000000000000000000000000000000000000000000000000000000000000000000000000000000000000000000000000000000000000000000000000000000000000
310
0000000000000000000000000000000000000000000000000000000000000000000000000000000000000000000000000000000000F500000000000000000000000000000000000000000000000000000000000000000000000000000000000000000000000000000000F50000000000000000000000000000000000000000
310
00000000000000000000000000000000000000000000000000000000000000000000000000000000000000000000000000000000000000000000000000000000000000000000000000000000000000000000000000000000000000000000000000000000000000000000000000000000000000000000000000000000000000
310
00000000000000000000000000000000000000000000000000000000000000000000000000000000000000000000000000000000000000F500000000000000000000000000000000000000000000000000000000000000000000000000000000000000000000000000000000F5000000000000000000000000000000000000
310
00000000000000000000000000000000000000000000000000000000000000000000000000000000000000000000000000000000000000000000000000000000000000000000000000000000000000000000000000000000000000000000000000000000000000000000000000000000000000000000000000000000000000
310
000000000000000000000000000000000000000000000000000000000000000000000000000000000000000000000000000000000000000000F500000000000000000000000000000000000000000000000000000000000000000000000000000000000000000000000000000000F500000000000000000000000000000000
310
00000000000000000000000000000000000000000000000000000000000000000000000000000000000000000000000000000000000000000000000000000000000000000000000000000000000000000000000000000000000000000000000000000000000000000000000000000000000000000000000000000000000000
310
0000000000000000000000000000000000000000000000000000000000000000000000000000000000000000000000000000000000000000000000F500000000000000000000000000000000000000000000000000000000000000000000000000000000000000000000000000000000F50000000000000000000000000000
310
00000000000000000000000000000000000000000000000000000000000000000000000000000000000000000000000000000000000000000000000000000000000000000000000000000000000000000000000000000000000000000000000000000000000000000000000000000000000000000000000000000000000000
310
00000000000000000000000000000000000000000000000000000000000000000000000000000000000000000000000000000000000000000000000000F50000000000000000000000000000000000000000000000000000000000000000000000000000000000000000000000000000000000000000000000000000000000
310
00000000000000000000000000000000000000000000000000000000000000000000000000000000000000000000000000000000000000000000000000000000000000000000000000000000000000000000000000000000000000000000000000000000000000000000000000000000000000000000000000000000000000
310
000000000000000000000000000000000000000000000000000000000000000000000000000000000000000000000000DCDCDCDCDCDCDCDCDCDCDC0000000000000000000000000000000000000000000000000000000000000000000000000000000000000000000000000000000000000000000000000000000000000000
310
00000000000000000000000000000000000000000000000000000000000000000000000000000000000000000000000000000000000000000000000000000000000000000000000000000000000000000000000000000000000000000000000000000000000000000000000000000000000000000000000000000000000000
310
00000000000000000000000000000000000000000000000000000000000000000000000000000000000000000000000000000000000000000000000000000000000000000000000000000000000000000000000000000000000000000000000000000000000000000000000000000000000000000000000000DCDCDCDCDCDC
310
DCDCDCDCDCDCDCDCDCDCDCDCDCDCDCDCDCDCDCDCDCDCDCDCDCDCDCDCDCDCDCDCDCDCDCDCDCDCDCDCDCDCDCDCDCDCDCDCDCDCDCDCDCDCDCDCDCDCDCDCDCDCDCDCDCDCDCDCDCDCDCDCDCDCDCDCDCDCDCDCDCDCDCDCDCDCDCDCDCDCDCDCDCDCDCDCDCDCDCDCDCDCDCDCDCDCDCDCDCDCDCDCDCDCDCDCDCDCDCDCDCDCDCDCDCDCDC
310
DCDCDCDCDCDCDCDCDCDCDCDCDCDCDCDCDCDCDCDCDCDCDCDCDCDCDCDCDCDCDCDCDCDCDCDCDCDCDCDCDCDCDCDCDCDCDCDCDCDCDCDCDCDCDCDCDCDCDCDCDCDCDCDCDC00000000000000000000000000000000000000000000000000000000000000000000000000000000000000000000000000000000000000000000DCDCDCDC
310
DCDCDCDCDCDCDCDCDCDCDCDCDCDCDCDCDCDCDCDCDCDCDCDCDCDCDCDCDCDCDCDCDCDCDCDCDCDCDCDCDCDCDCDCDCDCDCDCDCDCDCDCDCDCDCDCDCDCDCDCDCDCDCDCDCDCDCDCDCDCDCDCDCDCDCDCDCDCDCDCDCDCDCDCDCDCDCDCDCDCDCDCDCDCDCDCDCDCDCDCDCDCDCDCDCDCDCDCDCDCDCDCDCDCDCDCDCDCDCDCDCDCDCDCDCDCDC
310
DCDCDCDCDCDCDCDCDCDCDCDCDCDCDCDCDCDCDCDCDCDCDCDCDCDCDCDCDCDCDCDCDCDCDCDCDCDCDCDCDCDCDCDCDCDCDCDCDCDCDCDCDCDCDCDCDCDCDCDCDCDCDCDCDCDCDC00000000000000000000000000000000000000000000000000000000000000000000000000000000000000000000000000000000000000000000DCDC
310
0000DCDCDCDCDCDCDCDCDCDC0000000000000000000000000000000000DCDCDCDCDCDC0000000000000000000000000000000000000000000000000000000000000000000000000000DCDCDCDCDCDCDCDCDCDCDCDCDCDCDCDCDCDCDCDCDCDCDCDCDCDCDCDCDCDCDCDCDCDCDCDCDC0000000000DC0000000000000000000000
310
000000000000000000000000000000000000DC00000000000000000000000000000000000000000000000000000000DCDCDCDCDCDCDCDCDCDCDCDC0000000000000000DCDC00000000000000000000000000000000000000000000000000000000000000000000000000000000000000000000000000000000000000000000
310
DCDC0000DCDCDCDCDCDCDCDCDCDCDC00000000000000000000000000000000DCDCDCDCDCDCDCDCDCDCDCDCDCDCDCDCDCDCDCDCDCDCDCDCDCDCDCDCDCDCDCDCDCDCDCDCDCDCDCDCDCDCDCDCDC0000000000000000000000000000000000000000000000000000000000000000000000000000000000DCDCDCDCDCDCDCDCDCDC
310
00DCDCDCDCDCDCDCDCDCDCDCDCDCDCDCDCDCDCDCDCDCDCDCDCDCDCDCDCDCDCDCDCDCDCDCDCDCDCDCDCDC00DCDCDCDCDCDCDC00000000000000000000000000000000000000DCDC0000000000000000000000000000000000000000000000000000000000000000000000000000000000000000000000000000000000000000
310
0000DCDC0000DCDCDCDCDCDCDCDCDCDC00DC00DCDCDCDCDCDCDCDCDCDC00000000DCDCDCDCDCDC0000000000000000000000000000000000000000000000000000000000000000000000000000DC0000000000000000000000000000000000000000000000000000000000000000000000000000000000DCDCDCDCDCDCDCDC
310
DCDC0000000000000000000000000000000000000000DCDCDCDCDCDCDCDCDCDCDCDCDCDCDCDCDCDCDCDCDCDC00000000000000DC00000000000000000000000000000000000000DCDC000000000000000000000000000000000000000000000000000000000000000000000000000000000000000000000000000000000000
310
00000000DCDC0000DCDCDCDC00DCDCDCDCDC00DCDCDCDCDCDCDCDCDCDCDCDC00000000DCDCDCDCDCDC0000000000000000000000000000000000000000000000000000000000000000000000000000DCDCDCDCDCDCDCDCDCDCDCDCDCDCDCDCDCDCDCDCDCDCDCDCDCDCDCDCDCDCDCDCDCDCDCDCDCDCDCDCDCDCDC0000000000
310
000000000000000000000000000000000000000000000000DC00000000000000000000000000000000000000000000000000000000DCDCDCDCDC00DCDCDCDCDCDCDCDCDCDCDCDCDCDCDCDC00000000000000000000000000000000000000000000000000000000000000000000000000000000000000000000000000000000
310
000000000000DCDC0000000000000000000000000000000000DCDC00000000000000000000DC00000000000000000000000000000000000000000000000000000000000000000000000000000000000000DCDCDCDCDCDCDCDCDCDCDCDCDCDCDCDCDCDCDCDCDCDCDCDCDCDCDCDCDCDCDCDCDCDCDCDCDCDCDCDCDC00DC000000
310
0000000000000000000000000000000000000000000000000000DC00000000000000000000000000000000000000000000000000000000DCDCDCDCDC000000000000000000000000000000DCDC0000000000000000000000000000000000000000000000000000000000000000000000000000000000000000000000000000
310
0000000000000000DCDC00DCDCDCDCDCDCDC00DCDCDCDCDCDCDCDCDCDCDCDCDCDCDCDCDC000000DCDCDCDCDCDCDCDCDCDCDCDCDCDCDCDCDCDCDCDCDCDCDCDCDCDCDCDCDCDCDCDCDCDCDCDCDCDCDCDCDCDCDCDCDCDCDCDCDCDCDCDCDCDCDCDCDCDCDCDCDCDCDCDCDCDCDCDCDCDCDCDCDCDCDCDCDCDCDCDCDCDCDCDCDC00DCDC
310
DCDCDCDCDCDCDCDCDCDCDCDCDCDCDCDCDC00DCDCDCDCDCDCDCDCDCDCDCDCDCDCDCDCDCDCDCDCDCDCDCDCDCDCDCDCDCDCDCDCDCDCDCDCDCDCDCDC00000000000000000000000000000000000000DCDC000000000000000000000000000000000000000000000000000000000000000000000000000000000000000000000000
310
00000000000000000000DCDC00DCDCDCDCDCDCDC00DCDCDCDCDCDCDCDCDCDCDCDCDCDCDCDCDCDC0000DCDCDCDC00000000000000000000000000000000000000000000000000000000000000000000000000000000DC0000000000000000000000000000000000000000000000000000000000000000000000000000000000
310
DCDCDCDCDCDCDCDCDCDCDCDCDCDCDCDCDCDCDC0000000000000000000000DCDCDCDCDCDCDCDCDCDCDCDCDCDCDCDCDCDCDC00000000000000000000DCDCDCDCDC00DCDCDCDCDCDCDCDCDCDCDCDCDCDCDCDC00000000000000000000000000000000000000000000000000000000000000000000000000000000000000000000
310
000000000000000000000000DCDC00DCDCDCDCDCDCDC00DCDCDCDCDCDCDCDCDCDCDCDCDCDCDCDCDCDC0000DCDCDCDC00000000000000000000000000000000000000000000000000000000000000000000000000000000DC000000000000000000000000000000000000000000000000000000000000000000000000000000
310
0000DC0000000000000000000000000000000000000000000000000000000000DC00000000000000000000000000000000000000000000000000000000DCDCDCDCDC000000000000000000000000000000DCDC0000000000000000000000000000000000000000000000000000000000000000000000000000000000000000
310
0000000000000000000000000000DCDC00DCDCDCDCDCDC0000DCDCDCDCDCDCDCDCDCDCDCDCDCDCDCDCDCDC0000DC00000000000000000000000000000000000000000000000000000000000000000000000000000000000000DCDCDCDCDCDCDCDCDCDCDCDCDCDCDCDCDCDCDCDCDCDCDCDCDCDCDCDCDCDCDCDCDCDCDCDCDCDC
310
DCDCDCDCDC0000000000000000000000000000000000000000000000000000000000DC00000000000000000000000000000000000000000000000000000000DC00000000000000000000000000000000000000DCDC000000000000000000000000000000000000000000000000000000000000000000000000000000000000
310
00000000000000000000000000000000DCDC00DCDCDCDCDCDCDC00DCDCDCDCDCDCDCDCDCDCDCDCDCDCDCDCDCDC0000DCDCDCDCDCDCDCDCDCDCDCDCDCDCDCDCDCDCDCDCDCDCDCDCDCDCDCDCDCDCDCDCDCDCDCDCDCDCDCDCDCDCDCDCDC000000DC00DCDCDCDCDCDCDCDCDCDCDCDC000000000000DCDCDCDCDCDCDCDCDCDC0000
310
000000000000DCDCDCDCDCDCDCDCDCDCDCDCDCDCDCDCDC00DCDCDCDCDCDCDCDCDCDCDCDCDCDCDCDCDCDCDCDCDCDCDCDCDCDCDCDCDCDCDC0000DCDCDCDCDCDCDCDCDCDCDCDCDCDCDCDCDCDCDC000000DC000000DC00DCDC00000000000000000000000000000000000000000000000000000000000000000000000000000000
310
000000000000000000000000000000000000DCDC00DCDCDCDCDCDCDC00DCDCDCDCDC000000000000000000000000000000DCDCDCDCDC000000000000000000000000000000000000000000000000000000000000000000000000000000DC0000000000DCDCDCDCDCDCDCDCDCDCDCDC000000000000DCDCDCDCDCDCDCDCDCDC
310
0000000000000000DCDCDCDCDCDCDCDCDCDCDCDCDCDCDCDCDC00000000000000000000000000DCDCDCDCDCDCDCDCDCDCDCDCDCDCDCDCDCDCDC00000000000000000000DCDCDCDCDCDCDCDCDCDCDC000000DCDCDCDCDC00DCDC0000000000000000000000000000000000000000000000000000000000000000000000000000
310
0000000000000000000000000000000000000000DCDC00DCDCDCDCDCDCDC000000000000000000000000000000000000000000DC00000000000000000000000000000000000000000000000000000000000000000000000000000000000000DC0000000000000000000000000000000000000000000000DC00000000000000
310
00000000000000000000DC0000000000000000000000000000000000000000000000000000000000DC00000000000000000000000000000000000000000000000000000000DCDCDCDCDCDCDCDCDCDCDC0000DCDCDC00DCDCDCDCDC000000000000000000000000000000000000000000000000000000000000000000000000
310
00000000000000000000000000000000000000000000DCDCDCDCDCDCDCDCDCDCDCDCDCDCDCDCDCDCDCDCDCDCDCDCDCDCDCDCDCDCDCDCDCDCDCDCDCDCDCDCDCDCDCDCDCDCDCDCDCDCDCDCDCDCDCDCDCDCDCDCDCDCDCDCDCDCDCDCDCDCDCDCDCDCDCDCDCDCDCDCDCDCDCDCDCDCDCDCDCDCDCDCDCDCDCDCDCDCDCDCDCDCDCDCDC
310
DCDCDCDCDCDCDCDCDCDCDCDCDCDCDCDCDCDCDCDCDCDCDCDCDCDCDCDCDCDCDCDCDCDCDCDCDCDCDCDCDCDCDCDCDCDCDCDCDCDCDCDCDCDCDCDCDCDCDCDCDCDCDCDCDCDCDCDCDCDCDCDCDCDCDCDCDCDCDCDCDCDCDCDCDCDCDCDCDCDCDCDCDC00000000000000000000000000000000000000000000000000000000000000000000
310
000000000000000000000000000000000000000000000000DCDC0000000000000000000000000000000000000000000000000000000000000000000000000000000000000000000000000000000000000000000000000000000000000000000000000000000000000000000000000000000000000000000000000000000000
310
000000000000000000000000000000000000000000000000000000000000000000000000000000000000000000000000000000000000000000000000000000000000000000000000000000000000000000000000000000000000000000DCDC0000000000000000000000000000000000000000000000000000000000000000
310
0000000000000000000000000000000000000000000000000000DCDC000000000000000000000000000000000000000000000000000000000000000000000000000000000000000000000000000000000000000000000000000000000000000000000000000000000000000000000000000000000000000000000000000000
310
0000000000000000000000000000000000000000000000000000000000000000000000000000000000000000000000000000000000000000000000000000000000000000000000000000000000000000000000000000000000000000000000DCDC000000000000000000000000000000000000000000000000000000000000
310
00000000000000000000000000000000000000000000000000000000DCDC00000000000000000000000000000000000000000000000000000000000000000000000000000000000000000000000000000000000000000000000000000000000000000000000000000000000000000000000000000000000000000000000000
310
00000000000000000000000000000000000000000000000000000000000000000000000000000000000000000000000000000000000000000000000000000000000000000000000000000000000000000000000000000000000000000000000000DCDC00000000000000000000000000000000000000000000000000000000
310
000000000000000000000000000000000000000000000000000000000000DCDC00000000000000000000000000DCDCDCDCDCDCDCDCDCDCDCDCDCDCDCDCDCDCDCDCDCDCDCDCDCDC0000000000000000000000000000000000000000000000000000000000000000000000000000000000000000000000000000000000000000
310
00000000000000000000000000000000000000000000000000000000000000000000000000000000000000000000000000000000000000000000000000000000000000DCDCDCDCDCDCDCDCDCDC00DCDCDCDCDCDCDCDCDCDCDCDCDC0000000000000000DCDC0000000000000000000000000000000000000000000000000000
310
0000000000000000000000000000000000000000000000000000000000000000DCDC0000000000000000000000DCDCDCDCDCDCDCDCDCDCDCDCDCDCDCDCDCDCDCDCDCDCDCDCDCDCDCDC000000000000000000000000000000000000000000000000000000000000000000000000000000000000000000000000000000000000
310
000000000000000000000000000000000000000000000000000000000000000000000000000000000000000000000000000000000000000000000000000000000000000000DCDCDCDC0000000000DC0000000000000000000000DCDC000000000000000000DCDC000000000000000000000000000000000000000000000000
310
00000000000000000000000000000000000000000000000000000000000000000000DCDC0000000000000000000000DC00DCDCDCDCDCDCDCDCDCDCDCDCDCDCDCDCDCDCDCDCDCDCDCDCDCDC00000000000000000000000000000000000000000000000000000000000000000000000000000000000000000000000000000000
310
0000000000000000000000000000000000000000000000000000000000000000000000000000000000000000000000000000000000000000000000000000000000000000000000DCDCDCDC0000000000DC000000000000000000000000DC000000000000000000DCDC00000000000000000000000000000000000000000000
310
000000000000000000000000000000000000000000000000000000000000000000000000DCDC0000000000000000000000DCDCDCDCDCDCDCDCDCDCDCDCDCDCDCDCDCDCDCDCDCDCDCDCDCDCDCDC0000000000000000000000000000000000000000000000000000000000000000000000000000000000000000000000000000
310
00000000000000000000000000000000000000000000000000000000000000000000000000000000000000000000000000000000000000000000000000000000000000000000000000DCDCDCDC0000000000DC000000000000000000000000DC000000000000000000DCDC0000000000000000000000000000000000000000
310
0000000000000000000000000000000000000000000000000000000000000000000000000000DCDC000000000000000000000000000000000000000000000000000000000000000000000000000000000000000000000000000000000000000000000000000000000000000000000000000000000000000000000000000000
310
000000000000000000000000000000000000000000000000000000000000000000000000000000000000000000000000000000000000000000000000000000000000000000000000000000DC00DCDC0000000000DC000000000000000000000000DC000000000000000000DCDC000000000000000000000000000000000000
310
00000000000000000000000000000000000000000000000000000000000000000000000000000000DCDC00000000000000000000000000000000000000000000000000000000000000000000000000000000000000000000000000000000000000000000000000000000000000000000000000000000000000000000000000
310
0000000000000000000000000000000000000000000000000000000000000000000000000000000000000000000000000000000000000000000000000000000000000000000000000000000000DC00DCDC0000000000DC000000000000000000000000DC000000000000000000DCDC00000000000000000000000000000000
310
000000000000000000000000000000000000000000000000000000000000000000000000000000000000DCDC00000000000000000000000000DCDCDCDCDCDCDCDCDCDCDCDCDCDCDCDCDCDCDCDCDCDCDCDCDCDC0000000000000000000000000000000000000000000000000000000000000000000000000000000000000000
310
00000000000000000000000000000000000000000000000000000000000000000000000000000000000000000000000000000000000000000000000000000000000000000000000000000000000000DC00DCDC0000000000DC000000000000000000000000DC000000000000000000DCDC0000000000000000000000000000
310
0000000000000000000000000000000000000000000000000000000000000000000000000000000000000000DCDC0000000000000000000000DCDCDCDCDCDCDCDCDCDCDCDCDCDCDCDCDCDCDCDCDCDCDCDCDCDCDCDC0000000000000000000000000000000000DCDCDCDCDCDCDCDCDCDCDCDCDCDCDCDC000000000000000000
310
000000000000000000000000000000000000000000000000000000000000000000000000000000000000000000000000000000000000000000000000000000000000000000000000000000000000000000DC00DCDC0000000000DC000000000000000000000000DC000000000000000000DCDC000000000000000000000000
310
00000000000000000000000000000000000000000000000000000000000000000000000000000000000000000000DCDC0000000000000000000000DC00DCDCDCDCDCDCDCDCDCDCDCDCDCDCDCDCDCDCDCDCDCDCDC0000000000000000000000000000000000000000DCDCDCDCDCDCDCDCDCDCDCDCDCDCDCDC00000000000000
310
0000000000000000000000000000000000000000000000000000000000000000000000000000000000000000000000000000000000000000000000000000000000000000000000000000000000000000000000DC00DCDC0000000000DC000000000000000000000000DC000000000000000000DCDC00000000000000000000
310
000000000000000000000000000000000000000000000000000000000000000000000000000000000000000000000000DCDC0000000000000000000000DCDCDCDCDCDCDCDCDCDCDCDCDCDCDCDCDCDCDCDCDCDCDCDCDC0000000000000000000000000000000000000000DCDCDCDCDCDCDCDCDCDCDCDCDCDCDC000000000000
310
00000000000000000000000000000000000000000000000000000000000000000000000000000000000000000000000000000000000000000000000000000000000000000000000000000000000000000000000000DC00DCDC0000000000DC000000000000000000000000DC000000000000000000DCDC0000000000000000
310
0000000000000000000000000000000000000000000000000000000000000000000000000000000000000000000000000000DCDC00000000000000000000DCDCDCDCDCDCDCDCDCDCDCDCDCDCDCDCDCDCDCDCDCDCDCDCDCDCDCDCDCDCDCDCDC00000000000000000000000000DC00DCDCDCDCDCDCDCDCDCDCDCDCDC00000000
310
000000000000000000000000000000000000000000000000000000000000000000000000000000000000000000000000000000000000000000000000000000000000000000000000000000000000000000000000000000DC00DCDC0000000000DC000000000000000000000000DC000000000000000000DCDC000000000000
310
00000000000000000000000000000000000000000000000000000000000000000000000000000000000000000000000000000000DCDC00000000000000000000DCDCDCDCDCDCDCDCDCDCDCDCDCDCDCDCDCDCDCDCDCDCDCDCDCDCDCDCDCDCDCDCDC00000000000000000000000000DCDCDCDCDCDCDCDCDCDCDCDCDCDCDC0000
310
0000000000000000000000000000000000000000000000000000000000000000000000000000000000000000000000000000000000000000000000000000000000000000000000000000000000000000000000000000000000DC00DCDC0000000000DC000000000000000000000000DC000000000000000000DCDC00000000
310
000000000000000000000000000000000000000000000000000000000000000000000000000000000000000000000000000000000000DCDC00000000000000000000DCDCDCDCDCDCDCDCDCDCDCDCDCDCDCDCDCDCDCDCDCDCDCDCDC000000000000000000000000000000000000000000DCDCDCDCDCDCDCDCDCDCDCDCDCDCDC
310
00000000000000000000000000000000000000000000000000000000000000000000000000000000000000000000000000000000000000000000000000000000000000000000000000000000000000000000000000000000000000DC00DCDC0000000000DC000000000000000000000000DC000000000000000000DCDC0000
310
0000000000000000000000000000000000000000000000000000000000000000000000000000000000000000000000000000000000000000DCDC00000000000000000000DCDCDCDCDCDCDCDCDCDCDCDCDCDCDCDCDCDCDCDCDCDCDCDC0000000000DCDC000000000000000000000000000000DCDCDC00000000000000000000
310
00000000000000000000000000000000000000000000000000000000000000DCDCDCDCDC000000000000000000000000000000000000000000000000000000000000DCDCDCDCDCDCDCDC00000000000000000000000000000000000000DC00DCDC0000000000DC000000000000000000000000DC000000000000000000DCDC
310
00000000000000000000000000000000000000000000000000000000000000000000000000000000000000000000000000000000000000000000DCDC00000000000000000000000000000000000000000000000000000000000000000000000000000000DC000000000000000000000000000000DCDCDCDCDCDCDCDCDCDCDC
310
DCDCDCDC00000000000000000000000000DCDCDCDCDCDCDCDC0000000000DCDCDCDCDCDCDCDC000000000000000000000000000000000000000000000000000000DCDCDCDCDCDCDCDCDCDCDC00000000000000000000000000000000000000DC00DCDC0000000000DC000000000000000000000000DC000000000000000000
310
DCDC00000000000000000000000000000000000000000000000000000000000000000000000000000000000000000000000000000000000000000000DCDC0000000000000000000000000000000000000000000000000000000000000000000000000000000000DC0000000000000000000000000000DC00DCDCDCDCDCDCDC
310
DCDCDCDCDCDC00000000000000000000000000DC0000000000DCDC0000000000DCDCDC0000000000000000000000000000000000000000000000000000000000000000DC00DCDCDCDCDCDCDCDCDCDCDC0000000000000000000000000000000000DC00DCDC0000000000DC000000000000000000000000DC00000000000000
310
0000DCDC00000000000000000000000000000000000000000000000000000000000000000000000000000000000000000000000000000000000000000000DCDC00000000000000000000000000000000DC000000000000000000000000000000000000000000000000DC0000000000000000000000000000DCDCDCDCDCDCDC
310
DCDCDCDCDCDCDCDCDCDCDC00000000000000000000DC0000000000DCDC0000000000DCDCDCDCDCDCDCDCDCDCDCDCDC00000000000000000000000000000000000000000000DCDCDCDCDCDCDCDCDCDCDCDCDC0000000000000000000000000000000000DC00DCDC0000000000DC000000000000000000000000DC0000000000
310
00000000DCDC00000000000000000000000000000000000000000000000000000000000000000000000000000000000000000000000000000000000000000000DCDC000000000000000000000000000000DCDC00000000000000000000000000000000000000000000000000DC00000000000000000000DCDCDCDCDCDCDCDC
310
DCDCDCDCDCDCDCDCDCDCDCDC000000DC00000000000000DC0000000000DCDC0000000000DC00DCDCDCDCDCDCDCDCDCDCDC00000000000000000000000000000000000000000000000000000000000000000000000000000000000000000000000000000000DC00DCDC0000000000DC000000000000000000000000DC000000
310
000000000000DCDC00000000000000000000000000000000000000000000000000000000000000000000000000000000000000000000000000000000000000000000DCDC000000000000000000000000000000DCDC00000000000000000000000000000000000000000000000000DC00000000000000000000DC0000000000
310
0000000000000000000000000000000000DCDC000000000000DC0000000000DCDC0000000000DCDCDC0000000000000000000000000000000000000000000000000000000000000000000000DCDCDCDCDCDCDCDC00000000000000000000000000000000000000DCDCDCDC0000000000DC000000000000000000000000DC00
310
0000000000000000DCDC00000000000000000000000000000000000000000000000000000000000000000000000000000000000000000000000000000000000000000000DCDC000000000000000000000000000000DCDC0000000000000000000000000000000000000000000000000000DC000000000000000000DC000000
310
00000000000000000000000000000000000000DCDC00000000DC00DC00000000DCDCDC0000000000DCDCDCDCDCDCDCDCDCDCDCDCDCDCDC0000000000000000000000000000000000000000DCDCDCDCDCDCDCDCDCDCDCDCDCDC00000000000000000000000000000000DCDCDCDC0000000000DC000000000000000000000000
310
DC000000000000000000DCDC00000000000000000000000000000000000000000000000000000000000000000000000000000000000000000000000000000000000000000000DCDC000000000000000000000000000000DCDC000000000000000000000000000000000000000000000000DCDCDCDCDCDCDCDCDCDC00DC0000
310
000000000000000000000000000000000000000000DCDC00000000DCDCDC00000000DCDCDCDC00000000DC00DCDCDCDCDCDCDCDCDCDCDCDCDC0000000000000000000000000000000000000000DCDCDCDCDCDCDCDCDCDCDCDCDCDC00000000000000000000000000000000DCDCDCDC0000000000DC00000000000000000000
310
0000DC000000000000000000DCDC00000000000000000000000000000000000000000000000000000000000000000000000000000000000000000000000000000000000000000000DCDC000000000000000000000000000000DCDC000000000000000000000000000000000000000000000000DC00DC000000000000DC00DC
310
0000000000000000000000000000000000000000000000DCDC00000000DCDCDC0000000000DCDCDC00000000DCDCDCDCDCDCDCDCDCDCDCDCDCDC000000000000000000000000000000000000000000000000000000000000000000000000000000000000000000000000000000DC00DCDC0000000000DC0000000000000000
310
00000000DC000000000000000000DCDC00000000000000000000000000000000000000000000000000000000000000000000000000000000000000000000000000000000000000000000DCDC0000000000000000000000000000DCDCDC000000000000000000000000000000000000000000000000DC0000000000000000DC
310
DCDC0000000000000000000000000000000000000000000000DCDCDC000000DC00DCDCDCDCDCDCDCDCDC00000000DCDCDCDCDCDCDCDCDCDCDCDCDCDC000000000000000000000000000000000000000000DCDCDCDCDCDCDCDCDCDCDCDCDCDCDCDCDC00000000000000000000000000DC00DCDC0000000000DC000000000000
310
000000000000DC000000000000000000DCDC00000000000000000000000000000000000000000000000000000000000000000000000000000000000000000000000000000000000000000000DCDC0000000000000000000000000000DCDCDCDCDCDC0000000000DCDCDCDCDCDCDCDCDCDCDCDCDCDCDCDCDCDCDCDCDCDCDCDC
310
DCDCDCDCDCDCDCDCDCDCDCDCDCDCDCDCDCDC000000000000DCDCDCDCDCDC000000DC00000000000000000000DC000000DCDCDC0000000000000000000000000000000000000000000000000000000000000000DCDCDCDCDCDCDCDCDCDCDCDCDCDCDCDC0000DCDC00000000000000000000DC00DCDC0000000000DC00000000
310
0000000000000000DC000000000000000000DCDC00000000000000000000000000000000000000000000000000000000000000000000000000000000000000000000000000000000000000000000DCDC00000000000000000000DCDCDCDCDCDCDC0000DCDCDCDCDCDCDCDCDCDC000000000000000000000000000000DCDCDC
310
DCDC0000DC000000000000000000000000DCDCDCDCDCDCDCDCDCDC0000DCDCDCDCDCDCDCDCDCDCDC00000000000000DC0000DCDCDCDCDCDCDCDCDCDCDCDC00000000000000000000000000000000000000000000000000000000000000000000000000000000000000DCDC0000000000000000DC00DCDC0000000000DC0000
310
00000000000000000000DC000000000000000000DCDC00000000000000000000000000000000000000000000000000000000000000000000000000000000000000000000000000000000000000000000DCDC000000DCDCDCDCDCDCDCDCDCDCDCDCDCDCDCDCDCDCDCDCDCDCDCDCDCDCDCDCDCDCDCDCDCDCDCDCDCDCDCDCDCDC
310
DCDCDCDCDCDCDCDCDCDCDCDC00DCDCDCDCDCDCDCDCDCDCDCDCDCDCDCDCDCDCDCDCDCDCDCDCDCDCDCDCDCDCDCDCDC00000000DCDCDCDCDCDCDCDCDCDCDCDCDC00000000000000000000000000000000000000000000000000000000000000000000000000000000000000000000DCDC000000000000DC00DCDC0000000000DC
310
000000000000000000000000DC000000000000000000DCDC00000000000000000000000000000000000000000000000000000000000000000000000000000000000000000000000000000000000000000000DCDC0000000000000000000000000000DCDCDCDCDCDC0000DC0000DCDCDCDCDCDCDCDCDCDCDCDCDCDCDCDCDCDC
310
DCDCDCDCDCDCDCDCDCDCDCDCDCDCDCDCDCDCDCDCDCDCDCDC000000000000DCDCDCDCDCDC000000DC0000DC00000000000000000000000000000000000000000000000000000000000000000000000000000000000000000000000000000000000000000000000000000000000000000000DCDC00000000DC00DCDC00000000
310
00DC000000000000000000000000DC000000000000000000DCDC00000000000000000000000000000000000000000000000000000000000000000000000000000000000000000000000000000000000000000000DCDC0000000000000000000000000000DCDCDC0000DC0000DC000000000000000000000000000000000000
310
DC0000DCDCDC000000DC00000000000000000000000000000000000000000000DC00DCDCDCDC000000000000DC000000000000000000000000000000000000000000000000000000000000000000000000000000000000000000000000000000000000000000000000000000000000000000000000DCDCDC00DC00DCDC0000
310
000000DC000000000000000000000000DC000000000000000000DCDC00000000000000000000000000000000000000000000000000000000000000000000000000000000000000000000000000000000000000000000DCDC0000000000000000000000000000DCDCDC0000000000DC00000000000000000000000000000000
310
0000DC000000DCDC000000DC0000000000000000000000000000000000000000000000DC00DCDCDC00000000000000DC00000000000000000000000000000000000000000000000000000000000000000000000000000000000000000000000000000000000000000000000000000000000000000000000000DCDCDC00DCDC
310
0000000000DC000000000000000000000000DC000000000000000000DCDC00000000000000000000000000000000000000000000000000000000000000000000000000000000000000000000000000000000000000000000DCDC0000000000000000000000000000DC00DC000000000000DC00000000000000000000000000
310
00000000DCDCDCDCDCDCDCDCDCDC0000000000000000000000000000000000000000000000DC00DC000000000000000000DC000000000000000000000000000000000000000000000000000000000000000000000000000000000000000000000000000000000000000000000000000000000000000000000000000000DC00
310
DCDC0000000000DC000000000000000000000000DC000000000000000000DCDC00000000000000000000000000000000000000000000000000000000000000000000000000000000000000000000000000000000000000000000DCDC00000000000000DCDCDCDCDCDCDCDCDCDC000000000000DC0000000000000000000000
310
00000000000000000000DC000000000000000000000000000000000000000000000000000000DC0000DCDCDCDCDCDCDCDCDCDC00DC0000000000000000000000000000000000000000000000000000000000000000000000000000000000000000000000000000000000000000000000000000000000000000000000000000
310
DC00DCDC0000000000DC000000000000000000000000DC000000000000000000DCDC00000000000000000000000000000000000000000000000000000000000000000000000000000000000000000000000000000000000000000000DCDC00000000000000000000000000DC000000000000000000DC000000000000000000
310
00000000000000000000000000DC0000000000000000000000000000000000000000000000000000DC00000000000000000000000000DC000000000000000000000000000000000000000000000000000000000000000000000000000000000000000000000000000000000000000000000000000000000000000000000000
310
0000DC00DCDC0000000000DC000000000000000000000000DC000000000000000000DCDC00000000000000000000000000000000000000000000000000000000000000000000000000000000000000000000000000000000000000000000DCDC000000000000000000000000DC0000000000000000000000DC0000DCDCDCDC
310
DCDCDCDCDCDCDCDCDC000000000000DC00000000000000000000DCDCDCDCDCDCDCDCDCDCDCDC000000DC0000000000000000000000000000DC00000000000000000000000000000000000000000000000000000000000000000000000000000000000000000000000000000000000000000000000000000000000000000000
310
00000000DC00DCDC0000000000DC000000000000000000000000DC000000000000000000DCDC00000000000000000000000000000000000000000000000000000000000000000000000000000000000000000000000000000000000000000000DCDC000000000000000000000000DC0000000000000000000000DCDCDCDCDC
310
DCDCDCDCDCDCDCDCDCDCDC000000000000DC00000000000000000000DCDCDCDCDCDCDCDCDCDCDCDC0000DCDC000000000000000000000000000000DC00DCDCDCDCDCDCDCDCDCDCDCDCDCDCDCDCDCDCDCDCDCDCDCDCDCDCDCDCDC00000000000000000000000000000000000000000000000000000000000000000000000000
310
0000000000DCDCDCDCDC0000000000DC000000000000000000000000DC000000000000000000DCDC00000000000000000000000000000000000000000000000000000000000000000000000000000000000000000000000000000000000000000000DCDC0000000000000000000000DC000000000000000000000000000000
310
00000000000000000000000000000000000000DC0000000000000000000000000000000000000000000000000000000000000000000000000000000000DCDCDCDCDCDCDCDCDCDCDCDCDCDCDCDCDCDCDCDCDCDCDCDCDCDCDCDCDCDCDC0000000000000000000000000000000000000000000000000000000000000000000000
310
00000000000000DCDCDCDCDC0000000000DC000000000000000000000000DC000000000000000000DCDC00000000000000000000000000000000000000000000000000000000000000000000000000000000000000000000000000000000000000000000DCDC0000DCDCDCDCDCDCDC0000DC00000000000000000000000000
310
000000000000000000000000000000000000000000DC000000000000000000000000000000000000000000000000000000000000000000000000000000000000000000000000000000000000000000000000000000000000000000000000000000000000000000000000000000000000000000000000000000000000000000
310
000000000000000000DCDCDCDCDC0000000000DC000000000000000000000000DC000000000000000000DCDC00000000000000000000000000000000000000000000000000000000000000000000000000000000000000000000000000000000000000000000DCDC0000DCDCDCDCDCDCDCDCDC000000000000000000000000
310
000000000000000000000000000000000000000000000000DC000000000000000000000000000000000000000000000000000000000000000000000000000000000000000000000000000000000000000000000000000000000000000000000000000000000000000000000000000000000000000000000000000000000000
310
0000000000000000000000DCDCDCDCDC0000000000DC000000000000000000000000DC000000000000000000DCDC00000000000000000000000000000000000000000000000000000000000000000000000000000000000000000000000000000000000000000000DCDC000000000000000000000000000000000000000000
310
0000000000000000000000000000000000000000000000000000DC0000DCDCDCDCDCDCDCDCDCDCDCDCDCDCDCDCDCDCDCDCDCDCDCDCDCDC000000000000000000000000000000000000000000000000000000000000000000000000000000000000000000000000000000000000000000000000000000000000000000000000
310
00000000000000000000000000DCDCDCDCDC0000000000DC000000000000000000000000DC000000000000000000DCDC00000000000000000000000000000000000000000000000000000000000000000000000000000000000000000000000000000000000000000000DCDC0000DCDCDCDCDCDCDCDCDC0000000000000000
310
00000000000000000000000000000000000000000000000000000000DCDCDCDCDCDCDCDCDCDCDCDCDCDCDCDCDCDCDCDCDCDCDCDCDCDCDCDCDC00000000000000000000000000000000000000000000000000000000000000000000000000000000000000000000000000000000000000000000000000000000000000000000
310
000000000000000000000000000000DCDCDCDCDC0000000000DC000000000000000000000000DC000000000000000000DCDC00000000000000000000000000000000000000000000000000000000000000000000000000000000000000000000000000000000000000000000DCDC0000DCDCDCDCDCDCDCDCDC000000000000
310
00000000000000000000000000000000000000000000000000000000000000000000000000000000000000000000000000000000000000000000000000000000000000000000000000000000000000000000000000000000000000000000000000000000000000000000000000000000000000000000000000000000000000
310
0000000000000000000000000000000000DCDCDCDCDC0000000000DC000000000000000000000000DC000000000000000000DCDC00000000000000000000000000000000000000000000000000000000000000000000000000000000000000000000000000000000000000000000DCDC0000DCDCDCDC000000000000000000
310
00000000000000000000000000000000000000000000000000000000000000000000000000000000000000000000000000000000000000000000000000000000000000000000000000000000000000000000000000000000000000000000000000000000000000000000000000000000000000000000000000000000000000
310
00000000000000000000000000000000000000DCDCDCDCDC0000000000DC000000000000000000000000DC000000000000000000DCDC00000000000000000000000000000000000000000000000000000000000000000000000000000000000000000000000000000000000000000000DCDC0000DCDCDCDC00000000000000
310
00000000000000000000000000000000000000000000000000000000000000000000000000000000000000000000000000000000000000000000000000000000000000000000000000000000000000000000000000000000000000000000000000000000000000000000000000000000000000000000000000000000000000
310
000000000000000000000000000000000000000000DCDCDCDCDC0000000000DC000000000000000000000000DC000000000000000000DCDC00000000000000000000000000000000000000000000000000000000000000000000000000000000000000000000000000000000000000000000DCDC0000000000000000000000
310
00000000000000000000000000000000000000000000000000000000000000000000000000000000000000000000000000000000000000000000000000000000000000000000000000000000000000000000000000000000000000000000000000000000000000000000000000000000000000000000000000000000000000
310
0000000000000000000000000000000000000000000000DCDCDCDCDC0000000000DC000000000000000000000000DC000000000000000000DCDC00000000000000000000000000000000000000000000000000000000000000000000000000000000000000000000000000000000000000000000DCDC000000000000000000
310
00000000000000000000000000000000000000000000000000000000000000000000000000000000000000000000000000000000000000000000000000000000000000000000000000000000000000000000000000000000000000000000000000000000000000000000000000000000000000000000000000000000000000
310
00000000000000000000000000000000000000000000000000DCDCDCDCDC0000000000DC000000000000000000000000DCDCDC00000000000000DCDC00000000000000000000000000000000000000000000000000000000000000000000000000000000000000000000000000000000000000000000DCDC00000000000000
310
00000000000000000000000000000000000000000000000000000000000000000000000000000000000000000000000000000000000000000000000000000000000000000000000000000000000000000000000000000000000000000000000000000000000000000000000000000000000000000000000000000000000000
310
000000000000000000000000000000000000000000000000000000DCDCDCDCDC0000000000DC0000000000000000000000DCDCDCDC00000000000000DCDC00000000000000000000000000000000000000000000000000000000000000000000000000000000000000000000000000000000000000000000DCDC0000000000
310
00000000000000000000000000000000000000000000000000000000000000000000000000000000000000000000000000000000000000000000000000000000000000000000000000000000000000000000000000000000000000000000000000000000000000000000000000000000000000000000000000000000000000
310
0000000000000000000000000000000000000000000000000000000000DCDCDCDCDC0000000000DC0000000000000000000000DCDCDCDC00000000000000DCDC00000000000000000000000000000000000000000000000000000000000000000000000000000000000000000000000000000000000000000000DCDC000000
310
DCDCDCDCDCDCDCDCDCDCDCDCDCDCDCDCDCDCDCDCDCDCDCDCDCDCDCDCDCDCDCDCDCDCDCDCDCDCDCDCDCDC00000000000000000000000000000000000000000000000000000000000000000000000000000000000000000000000000000000000000000000000000000000000000000000000000000000000000000000000000
310
00000000000000000000000000000000000000000000000000000000000000DCDCDCDCDC0000000000DC0000000000000000000000DCDCDCDC00000000000000DCDC00000000000000000000000000000000000000000000000000000000000000000000000000000000000000000000000000000000000000000000DCDC00
310
0000DCDCDCDCDCDCDCDCDCDCDCDCDCDCDCDCDCDCDCDCDCDCDCDCDCDCDCDCDCDCDCDCDCDCDCDCDCDCDCDCDCDC0000000000000000000000000000000000000000000000000000000000000000000000000000000000000000000000000000000000000000000000000000000000000000000000000000000000000000000000
310
000000000000000000000000000000000000000000000000000000000000000000DCDCDCDCDC0000000000DC0000000000000000000000DCDCDCDC00000000000000DCDC00000000000000000000000000000000000000000000000000000000000000000000000000000000000000000000000000000000000000000000DC
310
DC000000DCDCDCDCDCDCDCDCDCDCDCDCDCDCDCDCDCDCDCDCDCDCDCDCDCDCDCDCDCDCDCDCDCDCDCDCDCDCDCDCDCDCDCDCDCDCDCDCDCDCDCDCDCDC000000000000000000000000000000000000000000000000000000000000000000000000000000000000000000000000000000000000000000000000000000000000000000
310
0000000000000000000000000000000000000000000000000000000000000000000000DCDCDCDCDC0000000000DC0000000000000000000000DCDCDCDC00000000000000DCDC000000000000000000000000000000000000000000000000000000000000000000000000000000000000000000000000000000000000000000
310
00DCDC000000DCDCDCDCDCDCDCDCDCDCDCDCDCDCDCDCDCDCDCDCDCDCDCDCDCDCDCDCDCDCDCDCDCDCDCDCDCDCDCDCDCDCDCDCDCDCDCDCDCDCDCDCDCDC00000000000000000000000000000000000000000000000000000000000000000000000000000000000000000000000000000000000000000000000000000000000000
310
00000000000000000000000000000000000000000000000000000000000000000000000000DCDCDC00DC0000000000DC0000000000000000000000DCDCDCDC00000000000000DCDC00000000000000000000000000000000000000000000000000000000000000000000000000000000000000000000000000000000000000
310
000000DCDC0000000000000000000000000000000000000000000000000000000000000000000000000000000000000000000000000000000000000000000000000000000000000000000000000000000000000000000000000000000000000000000000000000000000000000000000000000000000000000000000000000
310
000000000000000000000000000000000000000000000000000000000000000000000000000000DCDCDCDCDC0000000000DC0000000000000000000000DCDCDCDC00000000000000DCDC0000000000000000000000000000000000000000000000000000000000000000000000000000000000000000000000000000000000
310
0000000000DCDC000000DCDCDCDCDCDCDCDCDCDCDCDCDCDCDCDCDCDCDCDCDCDCDCDCDCDCDCDCDCDCDCDCDCDCDCDCDCDCDCDCDCDCDCDCDCDCDCDCDCDCDCDCDCDCDCDCDC000000000000000000000000000000000000000000000000000000000000000000000000000000000000000000000000000000000000000000000000
310
0000000000000000000000000000000000000000000000000000000000000000000000000000000000DCDCDCDCDC0000000000DC0000000000000000000000DCDCDCDC00000000000000DCDC000000000000000000000000000000000000000000000000000000000000000000000000000000000000000000000000000000
310
00000000000000DCDC000000DCDCDCDCDCDCDCDCDCDCDCDCDCDCDCDCDCDCDCDCDCDCDCDCDCDCDCDCDCDCDCDCDCDCDCDCDCDCDCDCDCDCDCDCDCDCDCDCDCDCDCDCDCDCDCDCDC00000000000000000000000000000000000000000000000000000000000000000000000000000000000000000000000000000000000000000000
310
00000000000000000000000000000000000000000000000000000000000000000000000000000000000000DCDCDCDCDC0000000000DC0000000000000000000000DCDCDCDC00000000000000DCDC00000000000000000000000000000000000000000000000000000000000000000000000000000000000000000000000000
310
000000000000000000DCDC000000DCDCDCDCDCDCDCDCDCDCDCDCDCDCDCDCDCDCDCDCDCDCDCDCDCDCDCDCDCDCDCDCDCDCDCDCDCDCDCDCDCDCDCDCDCDCDCDCDCDCDCDCDCDCDCDC000000000000000000000000000000000000000000000000000000000000000000000000000000000000000000000000000000000000000000
310
000000000000000000000000000000000000000000000000000000000000000000000000000000000000000000DCDCDCDCDC0000000000DC0000000000000000000000DCDCDCDC00000000000000DCDC0000000000000000000000000000000000000000000000000000000000000000000000000000000000000000000000
310
0000000000000000000000DCDC000000DCDCDCDCDCDCDCDCDCDCDCDCDCDCDCDCDCDCDCDCDCDCDCDCDCDCDCDCDCDCDCDCDCDCDCDCDCDCDCDCDCDCDCDCDCDCDCDCDCDCDCDCDCDCDCDC00000000000000000000000000000000000000000000000000000000000000000000000000000000000000000000000000000000000000
310
0000000000000000000000000000000000000000000000000000000000000000000000000000000000000000000000DCDCDCDCDC0000000000DC0000000000000000000000DCDCDCDC00000000000000DCDC000000000000000000000000000000000000000000000000000000000000000000000000000000000000000000
310
00000000000000000000000000DCDC00DCDCDCDCDCDCDC0000000000000000000000000000000000000000000000000000000000000000000000000000000000000000000000000000000000000000000000000000000000000000000000000000000000000000000000000000000000000000000000000000000000000000
310
00000000000000000000000000000000000000000000000000000000000000000000000000000000000000000000000000DCDCDCDCDC0000000000DC0000000000000000000000DCDCDCDC00000000000000DCDC00000000000000000000000000000000000000000000000000000000000000000000000000000000000000
310
000000000000000000000000000000DCDC00DCDCDCDCDCDC00000000000000000000000000000000000000000000000000000000000000000000000000000000000000000000000000000000000000000000000000000000000000000000000000000000000000000000000000000000000000000000000000000000000000
310
000000000000000000000000000000000000000000000000000000000000000000000000000000000000000000000000000000DCDCDCDCDC0000000000DC0000000000000000000000DCDCDCDC00000000000000DCDC0000000000000000000000000000000000000000000000000000000000000000000000000000000000
310
0000000000000000000000000000000000DCDC000000000000000000000000000000000000000000000000000000000000000000000000000000000000000000000000000000000000000000000000000000000000000000000000000000000000000000000000000000000000000000000000000000000000000000000000
310
0000000000000000000000000000000000000000000000000000000000000000000000000000000000000000000000000000000000DCDCDCDCDC0000000000DC0000000000000000000000DCDCDCDC00000000000000DCDC000000000000000000000000000000000000000000000000000000000000000000000000000000
310
00000000000000000000000000000000000000DCDC00000000000000000000000000000000000000000000000000000000000000000000000000000000000000000000000000000000000000000000000000000000000000000000000000000000000000000000000000000000000000000000000000000000000000000000
310
00000000000000000000000000000000000000000000000000000000000000000000000000000000000000000000000000000000000000DCDCDCDCDC0000000000DC0000000000000000000000DCDCDCDC00000000000000DCDC00000000000000000000000000000000000000000000000000000000000000000000000000
310
000000000000000000000000000000000000000000DCDC0000000000000000000000000000000000000000000000000000000000000000000000000000000000000000000000000000000000000000000000000000000000000000000000000000000000000000000000000000000000000000000000000000000000000000
310
000000000000000000000000000000000000000000000000000000000000000000000000000000000000000000000000000000000000000000DCDCDCDCDC0000000000DC0000000000000000000000DCDCDCDC00000000000000DCDC0000000000000000000000000000000000000000000000000000000000000000000000
310
0000000000000000000000000000000000000000000000DCDC000000000000000000000000000000000000000000000000000000000000000000000000000000000000000000000000000000000000000000000000000000000000000000000000000000000000000000000000000000000000000000000000000000000000
310
0000000000000000000000000000000000000000000000000000000000000000000000000000000000000000000000000000000000000000000000DCDCDCDCDC0000000000DC0000000000000000000000DCDCDCDC00000000000000DCDC000000000000000000000000000000000000000000000000000000000000000000
310
00000000000000000000000000000000000000000000000000DCDC00000000000000000000000000000000000000000000000000000000000000000000000000000000000000000000000000000000000000000000000000000000000000000000000000000000000000000000000000000000000000000000000000000000
310
00000000000000000000000000000000000000000000000000000000000000000000000000000000000000000000000000000000000000000000000000DCDCDCDCDC0000000000DC0000000000000000000000DCDCDCDC00000000000000DCDC00000000000000000000000000000000000000000000000000000000000000
310
000000000000000000000000000000000000000000000000000000DCDC0000000000000000000000000000000000000000000000000000000000000000000000000000000000000000000000000000000000000000000000000000000000000000000000000000000000000000000000000000000000000000000000000000
310
000000000000000000000000000000000000000000000000000000000000000000000000000000000000000000000000000000000000000000000000000000DCDCDCDCDC0000000000DC0000000000000000000000DCDCDCDC00000000000000DCDC0000000000000000000000000000000000000000000000000000000000
310
0000000000000000000000000000000000000000000000000000000000DCDC000000000000000000000000000000000000000000000000000000000000000000000000000000000000000000000000000000000000000000000000000000000000000000000000000000000000000000000000000000000000000000000000
310
0000000000000000000000000000000000000000000000000000000000000000000000000000000000000000000000000000000000000000000000000000000000DCDCDCDCDC0000000000DC0000000000000000000000DCDCDCDC00000000000000DCDC000000000000000000000000000000000000000000000000000000
310
00000000000000000000000000000000000000000000000000000000000000DCDC00000000000000000000000000000000000000000000000000000000000000000000000000000000000000000000000000000000000000000000000000000000000000000000000000000000000000000000000000000000000000000000
310
00000000000000000000000000000000000000000000000000000000000000000000000000000000000000000000000000000000000000000000000000000000000000DCDCDCDCDC0000000000DC0000000000000000000000DCDCDCDC00000000000000DCDC00000000000000000000000000000000000000000000000000
310
000000000000000000000000000000000000000000000000000000000000000000DCDC0000000000000000000000000000000000000000000000000000000000000000000000000000000000000000000000000000000000000000000000000000000000000000000000000000000000000000000000000000000000000000
310
000000000000000000000000000000000000000000000000000000000000000000000000000000000000000000000000000000000000000000000000000000000000000000DCDCDCDCDC0000000000DC00000000000000000000000000DCDC00000000000000DCDC0000000000000000000000000000000000000000000000
310
0000000000000000000000000000000000000000000000000000000000000000000000DCDC000000000000000000000000000000000000000000000000000000000000000000000000000000000000000000000000000000000000000000000000000000000000000000000000000000000000000000000000000000000000
310
0000000000000000000000000000000000000000000000000000000000000000000000000000000000000000000000000000000000000000000000000000000000000000000000DCDCDCDCDC0000000000DC00000000000000000000000000DCDC00000000000000DCDC000000000000000000000000000000000000000000
310
00000000000000000000000000000000000000000000000000000000000000000000000000DCDC00000000000000000000000000000000000000000000000000000000000000000000000000000000000000000000000000000000000000000000000000000000000000000000000000000000000000000000000000000000
310
00000000000000000000000000000000000000000000000000000000000000000000000000000000000000000000000000000000000000000000000000000000000000000000000000DCDCDCDCDC0000000000DC00000000000000000000000000DCDC00000000000000DCDC00000000000000000000000000000000000000
310
000000000000000000000000000000000000000000000000000000000000000000000000000000DCDC0000000000000000000000000000000000000000000000000000000000000000000000000000000000000000000000000000000000000000000000000000000000000000000000000000000000000000000000000000
310
000000000000000000000000000000000000000000000000000000000000000000000000000000000000000000000000000000000000000000000000000000000000000000000000000000DCDCDCDCDC0000000000DC000000000000000000000000DC000000000000000000DCDC0000000000000000000000000000000000
310
0000000000000000000000000000000000000000000000000000000000000000000000000000000000DCDC000000000000000000000000000000000000000000000000000000000000000000000000000000000000000000000000000000000000000000000000000000000000000000000000000000000000000000000000
310
00000000000000000000000000000000000000000000000000000000000000000000000000000000000000000000000000000000000000000000000000000000000000000000000000000000DC00DCDCDCDCDCDCDCDCDCDC00DCDCDCDCDCDC0000000000DC000000000000000000DCDC000000000000000000000000000000
310
00000000000000000000000000000000000000000000000000000000000000000000000000000000000000DCDC00000000000000000000000000000000000000000000000000000000000000000000000000000000000000000000000000000000000000000000000000000000000000000000000000000000000000000000
310
000000000000000000000000000000000000000000000000000000000000000000000000000000000000000000000000000000000000000000000000000000000000000000000000000000000000DCDCDC00DCDCDC0000DC00DC0000000000DC000000000000DC000000000000000000DCDC00000000000000000000000000
310
000000000000000000000000000000000000000000000000000000000000000000000000000000000000000000DCDC0000000000000000000000000000000000000000000000000000000000000000000000000000000000000000000000000000000000000000000000000000000000000000000000000000000000000000
310
0000000000000000000000000000000000000000000000000000000000000000000000000000000000000000000000000000000000000000000000000000000000000000000000000000000000000000DCDCDC00DCDC0000DC0000DC0000000000DC000000000000DC000000000000000000DCDC0000000000000000000000
310
0000000000000000000000000000000000000000000000000000000000000000000000000000000000000000000000DCDC000000000000000000000000000000000000000000000000000000000000000000000000000000000000000000000000000000000000000000000000000000000000000000000000000000000000
310
00000000000000000000000000000000000000000000000000000000000000000000000000000000000000000000000000000000000000000000000000000000000000000000000000000000000000000000DCDCDC00DCDC00DC0000DCDC0000000000DC000000000000DC000000000000000000DCDC000000000000000000
310
00000000000000000000000000000000000000000000000000000000000000000000000000000000000000000000000000DCDC00000000000000000000000000000000000000000000000000000000000000000000000000000000000000000000000000000000000000000000000000000000000000000000000000000000
310
000000000000000000000000000000000000000000000000000000000000000000000000000000000000000000000000000000000000000000000000000000000000000000000000000000000000000000000000DCDCDC00DCDCDC0000DC00DC0000000000DC000000000000DC000000000000000000DCDC00000000000000
310
000000000000000000000000000000000000000000000000000000000000000000000000000000000000000000000000000000DCDC0000000000000000000000000000000000000000000000000000000000000000000000000000000000000000000000000000000000000000000000000000000000000000000000000000
310
0000000000000000000000000000000000000000000000000000000000000000000000000000000000000000000000000000000000000000000000000000000000000000000000000000000000000000000000000000DCDCDC00DCDC0000DC0000DC0000000000DC000000000000DC000000000000000000DCDC0000000000
310
0000000000000000000000000000000000000000000000000000000000000000000000000000000000000000000000000000000000DCDC000000000000000000000000000000000000000000000000000000000000000000000000000000000000000000000000000000000000000000000000000000000000000000000000
310
00000000000000000000000000000000000000000000000000000000000000000000000000000000000000000000000000000000000000000000000000000000000000000000000000000000000000000000000000000000DCDCDC00DCDC00DC0000DCDC0000000000DC000000000000DC000000000000000000DCDC000000
310
00000000000000000000000000000000000000000000000000000000000000000000000000000000000000000000000000000000000000DCDC00000000000000000000000000000000000000000000000000000000000000000000000000000000000000000000000000000000000000000000000000000000000000000000
310
000000000000000000000000000000000000000000000000000000000000000000000000000000000000000000000000000000000000000000000000000000000000000000000000000000000000000000000000000000000000DCDCDC00DCDCDC0000DC00DC0000000000DC000000000000DC000000000000000000DCDC00
310
000000000000000000000000000000000000000000000000000000000000000000000000000000000000000000000000000000000000000000DCDC0000000000000000000000000000000000000000000000000000000000000000000000000000000000000000000000000000000000000000000000000000000000000000
310
00000000000000000000000000000000000000000000000000000000000000000000000000000000000000000000000000000000000000000000000000000000000000000000000000000000000000000000000000000000000000DC00DCDCDCDCDC0000DC0000DC0000000000DC000000000000DC000000000000000000DC
310
DC00000000000000000000000000000000000000000000000000000000000000000000000000000000000000000000000000000000000000000000DCDC000000000000000000000000000000000000000000000000000000000000000000000000000000000000000000000000000000000000000000000000000000000000
310
000000000000000000000000000000000000000000000000000000000000000000000000000000000000000000000000000000000000000000000000000000000000000000000000000000000000000000000000000000000000000000DCDCDC000000DC00DC0000DCDC0000000000DC000000000000DC0000000000000000
310
00DCDC00000000000000000000000000000000000000000000000000000000000000000000000000000000000000000000000000000000000000000000DCDC00000000000000000000000000000000000000000000000000000000000000000000000000000000000000000000000000000000000000000000000000000000
310
0000000000000000000000000000000000000000000000000000000000000000000000000000000000000000000000000000000000000000000000000000000000000000000000000000000000000000000000000000000000000000000000DCDCDCDCDCDCDCDC0000DC00DC0000000000DC000000000000DC000000000000
310
000000DCDC00000000000000000000000000000000000000000000000000000000000000000000000000000000000000000000000000000000000000000000DCDC0000000000000000000000000000000000000000000000000000000000000000000000000000000000000000000000000000000000000000000000000000
310
00000000000000000000000000000000000000000000000000000000000000000000000000000000000000000000000000000000000000000000000000000000000000000000000000000000000000000000000000000000000000000000000000DCDCDC0000DCDC0000DC0000DC0000000000DC000000000000DC00000000
310
0000000000DCDC00000000000000000000000000000000000000000000000000000000000000000000000000000000000000000000000000000000000000000000DCDC000000000000000000000000000000000000000000000000000000000000000000000000000000000000000000000000000000000000000000000000
310
0000000000000000000000000000000000000000000000000000000000000000000000000000000000000000000000000000000000000000000000000000000000000000000000000000000000000000000000000000000000000000DCDCDCDCDCDCDCDCDCDCDCDCDCDCDCDCDCDCDCDCDCDC000000DC000000000000DC0000
310
00000000000000DCDC00000000000000000000000000000000000000000000000000000000000000000000000000000000000000000000000000000000000000000000DCDC0000DCDCDCDCDCDCDCDCDCDCDCDCDCDCDCDCDCDCDCDCDCDCDCDCDCDCDCDCDCDCDCDCDCDCDCDCDCDCDCDCDCDCDCDCDCDCDCDCDCDCDCDCDCDCDC00
310
0000000000000000000000000000000000000000000000000000000000000000000000000000000000000000000000000000000000000000000000000000000000000000000000000000000000000000000000000000000000000000000000000000000000000000000000000000000000000000000000DC000000000000DC
310
000000000000000000DCDC00000000000000000000000000000000000000000000000000000000000000000000000000000000000000000000000000000000000000000000DCDC0000DCDCDCDCDCDCDCDCDCDCDCDCDCDCDCDCDCDCDCDCDCDCDCDCDCDCDCDCDCDCDCDCDCDCDCDCDCDCDCDCDCDCDCDCDCDCDCDCDCDCDCDCDCDC
310
DC0000000000000000000000000000000000000000000000000000000000000000000000000000000000000000000000000000000000000000000000000000000000000000000000000000000000000000000000000000000000000000000000DCDCDCDCDCDCDCDCDCDCDCDCDCDCDCDCDCDCDCDCDC00000000DC0000000000
310
00DC000000000000000000DCDC00000000000000000000000000000000000000000000000000000000000000000000000000000000000000000000000000000000000000000000DCDC000000000000000000000000000000000000000000000000000000000000000000000000000000000000000000000000000000000000
310
000000000000000000000000000000000000000000000000000000000000000000000000000000000000000000000000000000000000000000000000000000000000000000000000000000DCDCDCDCDCDC000000000000000000000000000000000000DCDCDC0000000000000000DCDC00DC0000DCDC0000000000DC000000
310
000000DC000000000000000000DCDC00000000000000000000000000000000000000000000000000000000000000000000000000000000000000000000000000000000000000000000DCDC00000000000000000000000000000000000000000000000000000000000000000000000000000000000000000000000000000000
310
0000000000000000000000000000000000000000000000000000000000000000000000000000000000000000000000000000000000000000000000000000000000000000000000000000000000DCDCDCDCDCDC000000000000000000000000000000000000DCDCDC0000000000000000DCDCDC0000DC00DC00000000DCDC00
310
0000000000DC000000000000000000DCDC00000000000000000000000000000000000000000000000000000000000000000000000000000000000000000000000000000000000000000000DCDC0000000000000000000000000000000000000000000000000000000000000000000000000000000000000000000000000000
310
00000000000000000000000000000000000000000000000000000000000000000000000000000000000000000000000000000000000000000000000000000000000000000000000000000000000000DCDCDCDCDCDCDCDCDCDCDCDCDC0000000000000000000000DCDCDCDCDCDCDCDCDCDCDCDCDC0000DC0000DC00000000DC
310
DC000000000000DC000000000000000000DCDC00000000000000000000000000000000000000000000000000000000000000000000000000000000000000000000000000000000000000000000DCDC0000DCDCDCDCDCDCDCDCDCDCDCDCDCDCDCDCDCDCDCDCDCDCDCDCDCDCDCDCDCDCDCDCDCDCDCDCDCDCDCDCDCDC00000000
310
000000000000000000000000000000000000000000000000000000000000000000000000000000000000000000000000000000000000000000000000000000000000000000000000000000000000000000DCDCDCDCDCDCDCDCDCDCDCDC0000DCDCDC000000000000DCDCDCDCDCDCDCDCDCDCDCDCDCDC00DC0000DCDC000000
310
00DCDC000000000000DC000000000000000000DCDC00000000000000000000000000000000000000000000000000000000000000000000000000000000000000000000000000000000000000000000DCDC0000DCDCDCDCDCDCDCDCDCDCDCDCDCDCDCDCDCDCDCDCDCDCDCDCDCDCDCDCDCDCDCDCDCDCDCDCDCDCDCDCDCDC0000
310
00000000000000000000000000000000000000000000000000000000000000000000000000000000000000000000000000000000000000000000000000000000000000000000000000000000000000000000000000000000000000000000000000000000DCDC00000000DCDCDC000000000000000000DCDCDC0000DC00DC00
310
000000DCDC000000000000DC000000000000000000DCDC00000000000000000000000000000000000000000000000000000000000000000000000000000000000000000000000000000000000000000000DCDC0000DCDCDCDCDCDCDCDCDCDCDCDCDCDCDCDCDCDCDCDCDCDCDCDCDCDCDCDCDCDCDCDCDCDCDCDCDC0000000000
310
0000000000000000000000000000000000000000000000000000000000000000000000000000000000000000000000000000000000000000000000000000000000000000000000000000000000000000000000000000000000000000000000000000000000000000DCDCDC00DCDCDC000000000000000000DCDC0000DC0000
310
DC00000000DCDC000000000000DC000000000000000000DCDC00000000000000000000000000000000000000000000000000000000000000000000000000000000000000000000000000000000000000000000DCDC0000DCDCDCDCDCDCDCDCDCDCDCDCDCDCDCDCDCDCDCDCDCDCDCDCDCDCDCDCDCDCDCDCDCDCDCDCDC000000
310
00000000000000000000000000000000000000000000000000000000000000000000000000000000000000000000000000000000000000000000000000000000000000000000000000000000000000000000000000000000000000000000000000000000000000000000000000DCDCDCDC000000000000000000DCDC00DC00
310
00DCDC00000000DCDC000000000000DC000000000000000000DCDC00000000000000000000000000000000000000000000000000000000000000000000000000000000000000000000000000000000000000000000DCDC0000DCDCDCDCDCDCDCDCDCDCDCDCDCDCDCDCDCDCDCDC000000000000000000000000000000000000
310
00000000000000000000000000000000000000000000000000000000000000000000000000000000000000000000000000000000000000000000000000000000000000000000000000000000000000000000000000000000000000000000000000000000000000000000000000000000DCDCDCDC0000000000000000DCDCDC
310
0000DC00DC00000000DCDC000000000000DC000000000000000000DCDC00000000000000000000000000000000000000000000000000000000000000000000000000000000000000000000000000000000000000000000DCDC0000DCDCDCDCDCDCDCDCDCDCDCDCDCDCDCDCDCDCDCDC00000000000000000000000000000000
310
000000000000000000000000000000000000000000000000000000000000000000000000000000000000000000000000000000000000000000000000000000000000000000000000000000000000000000000000000000000000000000000000000000000000000000000000000000000000DCDCDC00DCDCDC0000000000DC
310
DC0000DC0000DC00000000DCDC000000000000DC000000000000000000DCDC00000000000000000000000000000000000000000000000000000000000000000000000000000000000000000000000000000000000000000000DCDC0000DCDCDCDCDCDCDCDCDCDCDCDCDCDCDCDCDCDCDCDCDCDCDCDCDCDCDC00000000000000
310
0000000000000000000000000000000000000000000000000000000000000000000000000000000000000000000000000000000000000000000000000000000000000000000000000000000000000000000000000000000000000000000000000000000000000000000000000000000000000000DCDCDC00000000DCDC0000
310
00DCDC00DC0000DCDC00000000DCDC000000000000DC000000000000000000DCDC00000000000000000000000000000000000000000000000000000000000000000000000000000000000000000000000000000000000000000000DCDC0000DCDCDCDCDCDCDCDCDCDCDCDCDCDCDCDCDCDCDCDCDCDCDCDCDCDC000000000000
310
00000000000000000000000000000000000000000000000000000000000000000000000000000000000000000000000000000000000000000000000000000000000000000000000000000000000000000000000000000000000000000000000000000000000000000000000000000000000000000000DCDCDC000000000000
310
DCDCDCDCDCDC0000DC00DC00000000DCDC000000000000DC000000000000000000DCDC00000000000000000000000000000000000000000000000000000000000000000000000000000000000000000000000000000000000000000000DCDC0000000000000000000000000000000000000000000000000000000000000000
310
0000000000000000000000000000000000000000000000000000000000000000000000000000000000000000000000000000000000000000000000000000000000000000000000000000000000000000000000000000000000000000000000000000000000000000000000000000000000000000000000DCDCDC0000000000
310
0000000000DCDC0000DC0000DC00000000DCDC000000000000DC000000000000000000DCDC00000000000000000000000000000000000000000000000000000000000000000000000000000000000000000000000000000000000000000000DCDC000000000000000000000000000000000000000000000000000000000000
310
00000000000000000000000000000000000000000000000000000000000000000000000000000000000000000000000000000000000000000000000000000000000000000000000000000000000000000000000000000000000000000000000000000000000000000000000000000000000000000000000000DCDCDC000000
310
00000000000000DCDC00DC0000DCDC0000000000DC000000000000DC000000000000000000DCDC00000000000000000000000000000000000000000000000000000000000000000000000000000000000000000000000000000000000000000000DCDC00000000000000000000000000000000000000000000000000000000
310
000000000000000000000000000000000000000000000000000000000000000000000000000000000000000000000000000000000000000000000000000000000000000000000000000000000000000000000000000000000000000000000000000000000000000000000000000000000000000000000000000000DCDCDC00
310
000000000000000000DCDCDC0000DC00DC0000000000DC000000000000DC000000000000000000DCDC00000000000000000000000000000000000000000000000000000000000000000000000000000000000000000000000000000000000000000000DCDC0000000000000000000000000000000000000000000000000000
310
0000000000000000000000000000000000000000000000000000000000000000000000000000000000000000000000000000000000000000000000000000000000000000000000000000000000000000000000000000000000000000000000000000000000000000000000000000000000000000000000000000000000DCDC
310
DC00000000000000000000DCDC0000DC0000DC0000000000DC000000000000DC000000000000000000DCDC00000000000000000000000000000000000000000000000000000000000000000000000000000000000000000000000000000000000000000000DCDC000000000000000000000000000000000000000000000000
310
00000000000000000000000000000000000000000000000000000000000000000000000000000000000000000000000000000000000000000000000000000000000000000000000000000000000000000000000000000000000000000000000000000000000000000000000000000000000000000000000000000000000000
310
DCDCDC00000000000000000000DCDC00DC0000DCDC0000000000DC000000000000DC000000000000000000DCDC00000000000000000000000000000000000000000000000000000000000000000000000000000000000000000000000000000000000000000000DCDC00000000000000000000000000000000000000000000
310
0000000000000000000000000000000000000000000000000000000000000000000000000000000000000000000000000000000000000000000000000000000000000000000000000000000000000000000000000000000000000000000000000000000000000000DCDCDCDCDCDCDCDCDCDCDCDCDCDCDCDC00000000000000
310
0000DCDCDCDCDCDCDCDCDCDCDCDCDCDCDCDC0000DC00DC0000000000DC000000000000DC000000000000000000DCDC00000000000000000000000000000000000000000000000000000000000000000000000000000000000000000000000000000000000000000000DCDC0000000000000000000000000000000000000000
310
00000000000000000000000000000000000000000000000000000000000000000000000000000000000000000000000000000000000000000000000000000000000000000000000000000000000000000000000000000000000000000000000000000000000000000000DCDCDCDCDCDCDCDCDCDCDCDCDCDCDCDC00DCDCDC00
310
00000000DCDCDCDCDCDCDCDCDCDCDCDCDCDCDC0000DC0000DC0000000000DC000000000000DC000000000000000000DCDC00000000000000000000000000000000000000000000000000000000000000000000000000000000000000000000000000000000000000000000DCDC000000000000000000000000000000000000
310
00000000000000000000000000000000000000000000000000000000000000000000000000000000000000000000000000000000000000000000000000000000000000000000000000000000000000000000000000000000000000000000000000000000000000000000000000000000000000000000000000000000000000
310
DC0000000000DCDCDC0000000000DCDCDCDCDCDCDC00DC000000DC0000000000DC000000000000DC000000000000000000DCDC00000000000000000000000000000000000000000000000000000000000000000000000000000000000000000000000000000000000000000000DCDC00000000000000000000000000000000
310
00000000000000000000000000000000000000000000000000000000000000000000000000000000000000000000000000000000000000000000000000000000000000000000000000000000000000000000000000000000000000000000000000000000000000000000000000000000000000000000000000000000000000
310
000000DC000000DCDCDC000000000000DCDCDCDCDCDCDCDC000000DCDC0000000000DC000000000000DC000000000000000000DCDC00000000000000000000000000000000000000000000000000000000000000000000000000000000000000000000000000000000000000000000DCDC0000000000000000000000000000
310
00000000000000000000000000000000000000000000000000000000000000000000000000000000000000000000000000000000000000000000000000000000000000000000000000000000000000000000000000000000000000000000000000000000000000000000000000000000000000000000000000000000000000
310
0000000000DC000000DCDCDC000000000000DCDC0000DCDCDC000000DC00DC0000000000DC000000000000DC000000000000000000DCDC00000000000000000000000000000000000000000000000000000000000000000000000000000000000000000000000000000000000000000000DCDC000000000000000000000000
310
00000000000000000000000000000000000000000000000000000000000000000000000000000000000000000000000000000000000000000000000000000000000000000000000000000000000000000000000000000000000000000000000000000000000000000000000000000000000000000000000000000000000000
310
0000000000000000DC0000DCDCDC0000000000DCDCDCDCDC00DCDC00DCDC0000DC0000000000DC000000000000DC000000000000000000DCDC00000000000000000000000000000000000000000000000000000000000000000000000000000000000000000000000000000000000000000000DCDC00000000000000000000
310
00000000000000000000000000000000000000000000000000000000000000000000000000000000000000000000000000000000000000000000000000000000000000000000000000000000000000000000000000000000000000000000000000000000000000000000000000000000000000000000000000000000000000
310
00000000000000000000DCDC00DCDCDCDC0000000000DCDC0000DCDCDCDC000000DCDC0000000000DC000000000000DC000000000000000000DCDC00000000000000000000000000000000000000000000000000000000000000000000000000000000000000000000000000000000000000000000DCDC0000000000000000
310
00000000000000000000000000000000000000000000000000000000000000000000000000000000000000000000000000000000000000000000000000000000000000000000000000000000000000000000000000000000000000000000000000000000000000000000000000000000000000000000000000000000000000
310
00000000000000000000000000DCDCDCDCDC000000000000DCDCDCDCDCDCDC000000DC00DC0000000000DC000000000000DC000000000000000000DCDC00000000000000000000000000000000000000000000000000000000000000000000000000000000000000000000000000000000000000000000DCDC000000000000
310
00000000000000000000000000000000000000000000000000000000000000000000000000000000000000000000000000000000000000000000000000000000000000000000000000000000000000000000000000000000000000000000000000000000000000000000000000000000000000000000000000000000000000
310
000000000000000000000000000000DC00DCDCDC00000000000000DCDCDCDC00DC00DCDC0000DC0000000000DC000000000000DC000000000000000000DCDC00000000000000000000000000000000000000000000000000000000000000000000000000000000000000000000000000000000000000000000DCDC00000000
310
00DCDCDCDCDCDCDCDCDCDCDCDCDCDCDCDCDCDCDCDCDCDC0000000000000000000000000000000000000000000000000000000000000000000000000000000000000000000000000000000000000000000000000000000000000000000000000000000000000000000000000000000000000000000000000000000000000000
310
0000000000000000000000000000000000DCDCDCDCDCDC0000000000000000000000DCDC000000DCDC0000000000DC000000000000DC000000000000000000DCDC00000000000000000000000000000000000000000000000000000000000000000000000000000000000000000000000000000000000000000000DCDC0000
310
000000DCDCDCDCDCDCDCDCDCDCDCDCDCDCDCDCDCDCDCDCDCDC000000000000000000000000000000000000000000000000000000000000000000000000000000000000000000000000000000000000000000000000000000000000000000000000000000000000000000000000000000000000000000000000000000000000
310
000000000000000000000000000000000000000000DCDCDCDC0000000000000000000000DC000000DC00DC0000000000DC0000000000DCDC000000000000000000DCDC00000000000000000000000000000000000000000000000000000000000000000000000000000000000000000000000000000000000000000000DCDC
310
0000DCDCDCDCDCDCDCDCDCDCDCDCDCDCDCDCDCDCDCDCDCDCDCDCDCDCDCDCDCDCDC000000000000000000000000000000000000000000000000000000000000000000000000000000000000000000000000000000000000000000000000000000000000000000000000000000000000DCDCDCDCDCDCDCDCDCDCDCDCDCDCDCDC
310
DCDCDCDCDCDCDCDCDCDCDCDCDCDCDCDCDCDCDCDCDCDCDCDCDCDCDCDCDCDCDCDCDCDCDCDCDCDCDCDCDCDCDCDCDCDCDCDCDCDCDCDCDCDCDCDCDCDCDC0000000000000000DCDC00000000000000000000000000000000000000000000000000000000000000000000000000000000000000000000000000000000000000000000
310
DCDC0000DC00DCDCDCDCDCDCDCDCDCDCDCDCDCDCDCDCDCDCDCDCDCDCDCDCDCDCDCDCDC000000000000000000000000000000000000000000000000000000000000000000000000000000000000000000000000000000000000000000000000000000000000000000000000000000000000000000000000DC00000000000000
310
0000000000DC00000000000000000000000000DC000000000000000000000000DC000000DC000000DCDC000000DCDC00000000000000000000000000000000000000000000DCDC0000000000000000000000000000000000000000000000000000000000000000000000000000000000000000000000000000000000000000
310
0000DCDC0000DCDCDC00000000000000000000000000000000000000000000000000000000000000000000000000000000000000000000000000000000000000000000000000000000000000000000000000000000000000000000000000000000000000000000000000000000000000000000DCDCDCDCDCDCDCDCDCDCDCDC
310
DCDCDCDCDCDCDCDCDCDCDCDCDCDCDCDCDCDCDCDCDCDCDCDCDCDCDCDCDCDCDCDCDCDCDCDCDCDCDC000000DC000000DC00DC00000000000000000000000000000000000000000000DCDC000000000000000000000000000000000000000000000000000000000000000000000000000000000000000000000000000000000000
310
00000000DCDC0000DCDCDCDCDCDCDCDCDCDCDCDCDCDCDC00000000000000000000000000000000000000000000000000000000000000000000000000000000000000000000000000000000000000000000000000000000000000000000000000000000000000000000000000000000000000000000000000DC0000DCDCDC00
310
00000000000000DC00DCDC00DC00000000000000DC00DC00DCDC00000000000000DC00DC00DCDC0000000000DC00DCDC0000DC00000000000000000000000000000000000000000000DCDC00000000000000000000000000000000000000000000000000000000000000000000000000000000000000000000000000000000
310
000000000000DCDC0000DC00DCDCDCDCDCDCDCDCDCDCDCDCDC000000000000000000000000000000000000000000000000000000000000000000000000000000000000000000000000000000000000000000000000000000000000000000000000000000000000000000000000000000000000000000000000DC0000DC0000
310
DCDC000000000000DC00DC0000DC00DC0000000000DC00DC000000DCDC0000000000DC00DC000000DCDC00000000DCDC000000DCDC00000000000000000000000000000000000000000000DCDC0000000000000000000000000000000000000000000000000000000000000000000000000000000000000000000000000000
310
0000000000F50000DCDC0000DCDCDC000000000000000000000000000000000000000000000000000000000000000000000000000000000000000000000000000000000000000000000000000000000000000000000000000000000000000000000000000000000000000000000000000000000000000000000000DC00DC00
310
0000DC00DCDC000000DC00DC000000DC0000DC000000DC00DC00000000DC00DC00000000DC00DC000000DC00DC000000DC000000DC00DC00000000000000000000000000000000000000000000DCDC0000F5000000000000000000000000000000000000000000000000000000000000000000000000000000000000000000
310
00000000000000F50000DCDC00DCDCDCDCDCDCDCDCDCDCDCDCDCDCDCDCDCDCDCDCDCDCDCDCDCDCDCDCDCDCDCDCDCDCDCDCDCDCDCDCDCDC000000000000000000000000000000000000000000000000000000000000000000000000000000000000000000000000000000000000000000000000000000000000000000DC00DC
310
0000000000DC0000DC00DC00DC0000000000DC0000DC00DC00DC000000000000DC00DC0000DC00DC0000000000DC00DC0000DC0000DC0000DC00000000000000000000000000000000000000000000DCDC0000F500000000000000000000000000000000000000000000000000000000000000000000000000000000000000
310
000000000000000000F50000DCDC00DCDCDCDCDCDCDCDCDCDCDCDCDCDCDCDCDCDCDCDCDCDCDCDCDCDCDCDCDCDCDCDCDCDCDCDCDCDCDCDCDC000000000000000000000000000000000000000000000000000000000000000000000000000000000000000000000000000000000000000000000000000000000000000000DC00
310
DC00000000000000DC0000DC00DC00000000000000DC0000DC00DC0000000000000000DC00DCDC00DC00000000000000DC00DC00DC00DC0000DCDC00000000000000000000000000000000000000000000DCDC0000F50000000000000000000000000000000000000000000000000000000000000000000000000000000000
310
0000000000000000000000F50000DCDC00DCDCDCDCDCDCDCDCDCDCDCDCDCDCDCDCDCDCDCDCDCDCDCDCDCDCDCDCDCDCDCDCDCDCDCDCDCDCDCDCDC000000000000000000000000000000000000000000000000000000000000000000000000000000000000000000000000000000000000000000000000000000000000DCDCDC
310
DCDCDCDCDCDCDCDCDCDCDCDCDCDCDCDCDCDCDCDCDCDCDCDCDCDCDCDCDCDCDCDCDCDCDCDCDCDCDCDCDCDCDCDCDCDCDCDCDCDCDCDCDCDCDCDCDCDCDC00DC00000000000000000000000000000000000000000000DCDC0000F5000000000000000000000000000000000000000000000000000000000000000000000000000000
310
00000000000000000000000000F50000DCDC00DCDCDCDCDCDCDCDCDCDCDCDCDCDCDCDCDCDCDCDCDCDCDCDCDCDCDCDCDCDCDCDCDCDCDCDCDCDCDCDCDC0000000000000000000000000000000000000000000000000000000000000000000000000000000000000000000000000000000000000000000000000000000000DCDC
310
DCDCDCDCDCDCDCDCDCDCDCDCDCDCDCDCDCDCDCDCDCDCDCDCDCDCDCDCDCDCDCDCDCDCDCDCDCDCDCDCDCDCDCDCDCDCDCDCDCDCDCDCDCDCDCDCDCDCDCDC0000DC00000000000000000000000000000000000000000000DCDC0000F500000000000000000000000000000000000000000000000000000000000000000000000000
310
000000000000000000000000000000F50000DCDC0000000000000000000000000000000000000000000000000000000000000000000000000000000000000000000000000000000000000000000000000000000000000000000000000000000000000000000000000000000000000000000000000000000000000000000000
310
00000000000000000000000000000000000000000000000000000000000000000000000000000000000000000000000000000000000000000000DC00DC0000DCDC00000000000000000000000000000000000000000000DCDC0000F50000000000000000000000000000000000000000000000000000000000000000000000
310
0000000000000000000000000000000000F50000DCDCDCDCDCDCDCDCDCDCDCDCDCDCDCDCDCDCDCDCDCDCDCDCDCDCDCDCDCDCDCDCDCDCDCDCDCDCDCDCDCDCDCDCDCDCDCDCDCDCDCDCDCDCDCDCDCDCDCDCDCDCDCDCDCDCDCDCDCDCDCDCDCDCDCDCDCDCDCDCDCDCDCDCDCDCDCDCDCDCDCDCDCDCDCDCDCDCDCDCDCDCDCDCDCDCDC
310
DCDCDCDCDCDCDCDCDCDCDCDCDCDCDCDCDCDCDCDCDCDCDCDCDCDCDCDCDCDCDCDCDCDCDCDCDCDCDCDCDCDCDCDCDCDCDCDCDCDCDCDCDCDCDCDCDCDCDCDCDCDCDCDCDCDCDCDCDCDCDCDCDCDCDCDCDCDCDCDCDCDCDCDCDCDCDCDCDCDCDC0000F5000000000000000000000000000000000000000000000000000000000000000000
310
00000000000000000000000000000000000000F50000000000000000000000000000000000000000000000000000000000000000000000000000000000000000000000000000000000000000000000000000000000000000000000000000000000000000000000000000000000000000000000000000000000000000000000
310
0000000000000000000000000000000000000000000000000000000000000000000000000000000000000000000000000000000000000000000000000000000000000000000000000000000000000000000000000000000000000000000000F500000000000000000000000000000000000000000000000000000000000000
310
000000000000000000000000000000000000000000F5000000000000000000000000000000000000000000000000000000000000000000000000000000000000000000000000000000000000000000000000000000000000000000000000000000000000000000000000000000000000000000000000000000000000000000
310
00000000000000000000000000000000000000000000000000000000000000000000000000000000000000000000000000000000000000000000000000000000000000000000000000000000000000000000000000000000000000000000000000F50000000000000000000000000000000000000000000000000000000000
310
0000000000000000000000000000F5F5F5F5F5F5F5F5F5F5F5F5F5F5F500F5F5F5F5000000000000000000000000000000000000000000000000000000000000000000000000000000000000000000000000000000000000000000000000000000000000000000000000000000000000000000000000000000000000000000
310
0000000000000000000000000000000000000000000000000000000000000000000000000000000000000000000000000000000000000000000000000000000000000000000000000000000000000000000000000000000000F5F5F5F500F5F5F5F5F5F5F5F5F5F5F5F5F5F5F5000000000000000000000000000000000000
310
00000000000000000000000000000000000000000000000000F50000000000000000000000000000000000000000000000000000000000000000000000000000000000000000000000000000000000000000000000000000000000000000000000000000000000000000000000000000000000000000000000000000000000
310
0000000000000000000000000000000000000000000000000000000000000000000000000000000000000000000000000000000000000000000000000000000000000000000000000000000000000000000000000000000000000000000000000000000000F500000000000000000000000000000000000000000000000000
310
000000000000000000000000000000000000000000000000000000F5000000000000000000000000000000000000000000000000000000000000000000000000000000000000000000000000000000000000000000000000000000000000000000000000000000000000000000000000000000000000000000000000000000
310
00000000000000000000000000000000000000000000000000000000000000000000000000000000000000000000000000000000000000000000000000000000000000000000000000000000000000000000000000000000000000000000000000000000000000F50000000000000000000000000000000000000000000000
310
0000000000000000000000000000000000000000000000000000000000F500000000000000000000000000000000000000000000000000000000000000000000000000000000000000000000000000000000000000000000000000000000000000000000000000000000000000000000000000000000000000000000000000
310
000000000000000000000000000000000000000000000000000000000000000000000000000000000000000000000000000000000000000000000000000000000000000000000000000000000000000000000000000000000000000000000000000000000000000000F5000000000000000000000000000000000000000000
310
00000000000000000000000000000000000000000000000000000000000000F50000000000000000000000000000000000000000000000000000000000000000000000000000000000000000000000000000000000000000000000000000000000000000000000000000000000000000000000000000000000000000000000
310
0000000000000000000000000000000000000000000000000000000000000000000000000000000000000000000000000000000000000000000000000000000000000000000000000000000000000000000000000000000000000000000000000000000000000000000000F500000000000000000000000000000000000000
310
000000000000000000000000000000000000000000000000000000000000000000F5000000000000000000000000000000000000000000000000000000000000000000000000000000000000000000000000000000000000000000000000000000000000000000000000000000000000000000000000000000000000000000
310
00000000000000000000000000000000000000000000000000000000000000000000000000000000000000000000000000000000000000000000000000000000000000000000000000000000000000000000000000000000000000000000000000000000000000000000000000F50000000000000000000000000000000000
310
00000000000000000000000000000000000000000000000000000000000000000000000000000000000000000000000000000000000000000000000000000000000000000000000000000000000000000000000000000000000000000000000000000000000000000000000000000000000000000000000000000000000000
310
00000000000000000000000000000000000000000000000000000000000000000000000000000000000000000000000000000000000000000000000000000000000000000000000000000000000000000000000000000000000000000000000000000000000000000000000000000000000000000000000000000000000000
310
00000000000000000000000000000000000000000000000000000000000000000000000000F50000000000000000000000000000000000000000000000000000000000000000000000000000000000000000000000000000000000000000000000000000000000000000000000000000000000000000000000000000000000
310
0000000000000000000000000000000000000000000000000000000000000000000000000000000000000000000000000000000000000000000000000000000000000000000000000000000000000000000000000000000000000000000000000000000000000000000000000000000000F500000000000000000000000000
310
000000000000000000000000000000000000000000000000000000000000000000000000000000F5000000000000000000000000000000000000000000000000000000000000000000000000000000000000000000000000000000000000000000000000000000000000000000000000000000000000000000000000000000
310
00000000000000000000000000000000000000000000000000000000000000000000000000000000000000000000000000000000000000000000000000000000000000000000000000000000000000000000000000000000000000000000000000000000000000000000000000000000000000F50000000000000000000000
310
0000000000000000000000000000000000000000000000000000000000000000000000000000000000F500000000000000000000000000000000000000000000000000000000000000000000000000000000000000000000000000000000000000000000000000000000000000000000000000000000000000000000000000
310
000000000000000000000000000000000000000000000000000000000000000000000000000000000000000000000000000000000000000000000000000000000000000000000000000000000000000000000000000000000000000000000000000000000000000000000000000000000000000000F5000000000000000000
310
00000000000000000000000000000000000000000000000000000000000000000000000000000000000000000000000000000000000000000000000000000000000000000000000000000000000000000000000000000000000000000000000000000000000000000000000000000000000000000000000000000000000000
310
00000000000000000000000000000000000000000000000000000000000000000000000000000000000000000000000000000000000000000000000000000000000000000000000000000000000000000000000000000000000000000000000000000000000000000000000000000000000000000000000000000000000000
310
00000000000000000000000000000000000000
  0
XRECORD
  5
61D
102
{ACAD_REACTORS
330
61B
102
}
330
61B
100
AcDbXrecord
280
     1
270
     1
271
     1
  0
XRECORD
  5
61C
102
{ACAD_REACTORS
330
61B
102
}
330
61B
100
AcDbXrecord
280
     1
270
     1
271
     1
  0
XRECORD
  5
620
102
{ACAD_REACTORS
330
61B
102
}
330
61B
100
AcDbXrecord
280
     1
270
     1
271
     1
  0
XRECORD
  5
61F
102
{ACAD_REACTORS
330
61B
102
}
330
61B
100
AcDbXrecord
280
     1
270
     1
271
     1
  0
XRECORD
  5
621
102
{ACAD_REACTORS
330
61B
102
}
330
61B
100
AcDbXrecord
280
     1
270
     1
271
     1
  0
XRECORD
  5
61E
102
{ACAD_REACTORS
330
61B
102
}
330
61B
100
AcDbXrecord
280
     1
270
     1
271
     1
  0
XRECORD
  5
615
102
{ACAD_REACTORS
330
613
102
}
330
613
100
AcDbXrecord
280
     1
270
     1
271
     1
  0
XRECORD
  5
614
102
{ACAD_REACTORS
330
613
102
}
330
613
100
AcDbXrecord
280
     1
270
     1
271
     1
  0
XRECORD
  5
618
102
{ACAD_REACTORS
330
613
102
}
330
613
100
AcDbXrecord
280
     1
270
     1
271
     1
  0
XRECORD
  5
617
102
{ACAD_REACTORS
330
613
102
}
330
613
100
AcDbXrecord
280
     1
270
     1
271
     1
  0
XRECORD
  5
619
102
{ACAD_REACTORS
330
613
102
}
330
613
100
AcDbXrecord
280
     1
270
     1
271
     1
  0
XRECORD
  5
616
102
{ACAD_REACTORS
330
613
102
}
330
613
100
AcDbXrecord
280
     1
270
     1
271
     1
  0
XRECORD
  5
625
102
{ACAD_REACTORS
330
623
102
}
330
623
100
AcDbXrecord
280
     1
270
     1
271
     1
  0
XRECORD
  5
624
102
{ACAD_REACTORS
330
623
102
}
330
623
100
AcDbXrecord
280
     1
270
     1
271
     1
  0
XRECORD
  5
628
102
{ACAD_REACTORS
330
623
102
}
330
623
100
AcDbXrecord
280
     1
270
     1
271
     1
  0
XRECORD
  5
627
102
{ACAD_REACTORS
330
623
102
}
330
623
100
AcDbXrecord
280
     1
270
     1
271
     1
  0
XRECORD
  5
629
102
{ACAD_REACTORS
330
623
102
}
330
623
100
AcDbXrecord
280
     1
270
     1
271
     1
  0
XRECORD
  5
626
102
{ACAD_REACTORS
330
623
102
}
330
623
100
AcDbXrecord
280
     1
270
     1
271
     1
  0
CELLSTYLEMAP
  5
6DB
102
{ACAD_REACTORS
330
6DA
102
}
330
6DA
100
AcDbCellStyleMap
 90
        3
300
CELLSTYLE
  1
TABLEFORMAT_BEGIN
 90
        5
170
     1
 91
        0
 92
    32768
 62
   257
 93
        1
300
CONTENTFORMAT
  1
CONTENTFORMAT_BEGIN
 90
        0
 91
        0
 92
      512
 93
        0
300

 40
0.0
140
1.0
 94
        5
 62
     0
340
F
144
0.25
309
CONTENTFORMAT_END
171
     0
 94
        0
309
TABLEFORMAT_END
  1
CELLSTYLE_BEGIN
 90
        1
 91
        1
300
_TITLE
309
CELLSTYLE_END
300
CELLSTYLE
  1
TABLEFORMAT_BEGIN
 90
        5
170
     1
 91
        0
 92
        0
 62
   257
 93
        1
300
CONTENTFORMAT
  1
CONTENTFORMAT_BEGIN
 90
        0
 91
        0
 92
      512
 93
        0
300

 40
0.0
140
1.0
 94
        5
 62
     0
340
F
144
0.18
309
CONTENTFORMAT_END
171
     0
 94
        0
309
TABLEFORMAT_END
  1
CELLSTYLE_BEGIN
 90
        2
 91
        1
300
_HEADER
309
CELLSTYLE_END
300
CELLSTYLE
  1
TABLEFORMAT_BEGIN
 90
        5
170
     1
 91
        0
 92
        0
 62
   257
 93
        1
300
CONTENTFORMAT
  1
CONTENTFORMAT_BEGIN
 90
        0
 91
        0
 92
      512
 93
        0
300

 40
0.0
140
1.0
 94
        2
 62
     0
340
F
144
0.18
309
CONTENTFORMAT_END
171
     0
 94
        0
309
TABLEFORMAT_END
  1
CELLSTYLE_BEGIN
 90
        3
 91
        2
300
_DATA
309
CELLSTYLE_END
  0
XRECORD
  5
6E8
102
{ACAD_REACTORS
330
6E7
102
}
330
6E7
100
AcDbXrecord
280
     1
102
RTVSPropertyOp0
 70
     1
102
RTVSPropertyOp1
 70
     1
102
RTVSPropertyOp2
 70
     1
102
RTVSPropertyOp3
 70
     1
102
RTVSPropertyOp4
 70
     1
102
RTVSPropertyOp5
 70
     1
102
RTVSPropertyOp6
 70
     1
102
RTVSPropertyOp7
 70
     1
102
RTVSPropertyOp8
 70
     1
102
RTVSPropertyOp9
 70
     1
102
RTVSPropertyOp10
 70
     1
102
RTVSPropertyOp11
 70
     1
102
RTVSPropertyOp12
 70
     1
102
RTVSPropertyOp13
 70
     1
102
RTVSPropertyOp14
 70
     1
102
RTVSPropertyOp15
 70
     1
102
RTVSPropertyOp16
 70
     1
102
RTVSPropertyOp17
 70
     1
102
RTVSPropertyOp18
 70
     1
102
RTVSPropertyOp19
 70
     1
102
RTVSPropertyOp20
 70
     1
102
RTVSPropertyOp21
 70
     1
102
RTVSPropertyOp22
 70
     1
102
RTVSPropertyOp23
 70
     1
102
RTVSPropertyOp24
 70
     1
102
RTVSPropertyOp25
 70
     1
102
RTVSPropertyOp26
 70
     1
102
RTVSPropertyOp27
 70
     1
102
RTVSPropertyOp28
 70
     1
102
RTVSPropertyOp29
 70
     1
102
RTVSPropertyOp30
 70
     1
102
RTVSPropertyOp31
 70
     1
102
RTVSPropertyOp32
 70
     1
  0
XRECORD
  5
6E6
102
{ACAD_REACTORS
330
6E5
102
}
330
6E5
100
AcDbXrecord
280
     1
102
RTVSPropertyOp0
 70
     1
102
RTVSPropertyOp1
 70
     1
102
RTVSPropertyOp2
 70
     1
102
RTVSPropertyOp3
 70
     1
102
RTVSPropertyOp4
 70
     1
102
RTVSPropertyOp5
 70
     1
102
RTVSPropertyOp6
 70
     1
102
RTVSPropertyOp7
 70
     1
102
RTVSPropertyOp8
 70
     1
102
RTVSPropertyOp9
 70
     1
102
RTVSPropertyOp10
 70
     1
102
RTVSPropertyOp11
 70
     1
102
RTVSPropertyOp12
 70
     1
102
RTVSPropertyOp13
 70
     1
102
RTVSPropertyOp14
 70
     1
102
RTVSPropertyOp15
 70
     1
102
RTVSPropertyOp16
 70
     1
102
RTVSPropertyOp17
 70
     1
102
RTVSPropertyOp18
 70
     1
102
RTVSPropertyOp19
 70
     1
102
RTVSPropertyOp20
 70
     1
102
RTVSPropertyOp21
 70
     1
102
RTVSPropertyOp22
 70
     1
102
RTVSPropertyOp23
 70
     1
102
RTVSPropertyOp24
 70
     1
102
RTVSPropertyOp25
 70
     1
102
RTVSPropertyOp26
 70
     1
102
RTVSPropertyOp27
 70
     1
102
RTVSPropertyOp28
 70
     1
102
RTVSPropertyOp29
 70
     1
102
RTVSPropertyOp30
 70
     1
102
RTVSPropertyOp31
 70
     1
102
RTVSPropertyOp32
 70
     1
  0
XRECORD
  5
6F4
102
{ACAD_REACTORS
330
6F3
102
}
330
6F3
100
AcDbXrecord
280
     1
102
RTVSPropertyOp0
 70
     1
102
RTVSPropertyOp1
 70
     1
102
RTVSPropertyOp2
 70
     1
102
RTVSPropertyOp3
 70
     1
102
RTVSPropertyOp4
 70
     1
102
RTVSPropertyOp5
 70
     1
102
RTVSPropertyOp6
 70
     1
102
RTVSPropertyOp7
 70
     1
102
RTVSPropertyOp8
 70
     1
102
RTVSPropertyOp9
 70
     1
102
RTVSPropertyOp10
 70
     1
102
RTVSPropertyOp11
 70
     1
102
RTVSPropertyOp12
 70
     1
102
RTVSPropertyOp13
 70
     1
102
RTVSPropertyOp14
 70
     1
102
RTVSPropertyOp15
 70
     1
102
RTVSPropertyOp16
 70
     1
102
RTVSPropertyOp17
 70
     1
102
RTVSPropertyOp18
 70
     1
102
RTVSPropertyOp19
 70
     1
102
RTVSPropertyOp20
 70
     1
102
RTVSPropertyOp21
 70
     1
102
RTVSPropertyOp22
 70
     1
102
RTVSPropertyOp23
 70
     1
102
RTVSPropertyOp24
 70
     1
102
RTVSPropertyOp25
 70
     1
102
RTVSPropertyOp26
 70
     1
102
RTVSPropertyOp27
 70
     1
102
RTVSPropertyOp28
 70
     1
102
RTVSPropertyOp29
 70
     1
102
RTVSPropertyOp30
 70
     1
102
RTVSPropertyOp31
 70
     1
102
RTVSPropertyOp32
 70
     1
  0
XRECORD
  5
6FC
102
{ACAD_REACTORS
330
6FB
102
}
330
6FB
100
AcDbXrecord
280
     1
102
RTVSPropertyOp0
 70
     1
102
RTVSPropertyOp1
 70
     1
102
RTVSPropertyOp2
 70
     1
102
RTVSPropertyOp3
 70
     1
102
RTVSPropertyOp4
 70
     1
102
RTVSPropertyOp5
 70
     1
102
RTVSPropertyOp6
 70
     1
102
RTVSPropertyOp7
 70
     1
102
RTVSPropertyOp8
 70
     1
102
RTVSPropertyOp9
 70
     1
102
RTVSPropertyOp10
 70
     1
102
RTVSPropertyOp11
 70
     1
102
RTVSPropertyOp12
 70
     1
102
RTVSPropertyOp13
 70
     1
102
RTVSPropertyOp14
 70
     1
102
RTVSPropertyOp15
 70
     1
102
RTVSPropertyOp16
 70
     1
102
RTVSPropertyOp17
 70
     1
102
RTVSPropertyOp18
 70
     1
102
RTVSPropertyOp19
 70
     1
102
RTVSPropertyOp20
 70
     1
102
RTVSPropertyOp21
 70
     1
102
RTVSPropertyOp22
 70
     1
102
RTVSPropertyOp23
 70
     1
102
RTVSPropertyOp24
 70
     1
102
RTVSPropertyOp25
 70
     1
102
RTVSPropertyOp26
 70
     1
102
RTVSPropertyOp27
 70
     1
102
RTVSPropertyOp28
 70
     1
102
RTVSPropertyOp29
 70
     1
102
RTVSPropertyOp30
 70
     1
102
RTVSPropertyOp31
 70
     1
102
RTVSPropertyOp32
 70
     1
  0
XRECORD
  5
6EE
102
{ACAD_REACTORS
330
6ED
102
}
330
6ED
100
AcDbXrecord
280
     1
102
RTVSPropertyOp0
 70
     1
102
RTVSPropertyOp1
 70
     1
102
RTVSPropertyOp2
 70
     1
102
RTVSPropertyOp3
 70
     1
102
RTVSPropertyOp4
 70
     1
102
RTVSPropertyOp5
 70
     1
102
RTVSPropertyOp6
 70
     1
102
RTVSPropertyOp7
 70
     1
102
RTVSPropertyOp8
 70
     1
102
RTVSPropertyOp9
 70
     1
102
RTVSPropertyOp10
 70
     1
102
RTVSPropertyOp11
 70
     1
102
RTVSPropertyOp12
 70
     1
102
RTVSPropertyOp13
 70
     1
102
RTVSPropertyOp14
 70
     1
102
RTVSPropertyOp15
 70
     1
102
RTVSPropertyOp16
 70
     1
102
RTVSPropertyOp17
 70
     1
102
RTVSPropertyOp18
 70
     1
102
RTVSPropertyOp19
 70
     1
102
RTVSPropertyOp20
 70
     1
102
RTVSPropertyOp21
 70
     1
102
RTVSPropertyOp22
 70
     1
102
RTVSPropertyOp23
 70
     1
102
RTVSPropertyOp24
 70
     1
102
RTVSPropertyOp25
 70
     1
102
RTVSPropertyOp26
 70
     1
102
RTVSPropertyOp27
 70
     1
102
RTVSPropertyOp28
 70
     1
102
RTVSPropertyOp29
 70
     1
102
RTVSPropertyOp30
 70
     1
102
RTVSPropertyOp31
 70
     1
102
RTVSPropertyOp32
 70
     1
  0
XRECORD
  5
6F2
102
{ACAD_REACTORS
330
6F1
102
}
330
6F1
100
AcDbXrecord
280
     1
102
RTVSPropertyOp0
 70
     1
102
RTVSPropertyOp1
 70
     1
102
RTVSPropertyOp2
 70
     1
102
RTVSPropertyOp3
 70
     1
102
RTVSPropertyOp4
 70
     1
102
RTVSPropertyOp5
 70
     1
102
RTVSPropertyOp6
 70
     1
102
RTVSPropertyOp7
 70
     1
102
RTVSPropertyOp8
 70
     1
102
RTVSPropertyOp9
 70
     1
102
RTVSPropertyOp10
 70
     1
102
RTVSPropertyOp11
 70
     1
102
RTVSPropertyOp12
 70
     1
102
RTVSPropertyOp13
 70
     1
102
RTVSPropertyOp14
 70
     1
102
RTVSPropertyOp15
 70
     1
102
RTVSPropertyOp16
 70
     1
102
RTVSPropertyOp17
 70
     1
102
RTVSPropertyOp18
 70
     1
102
RTVSPropertyOp19
 70
     1
102
RTVSPropertyOp20
 70
     1
102
RTVSPropertyOp21
 70
     1
102
RTVSPropertyOp22
 70
     1
102
RTVSPropertyOp23
 70
     1
102
RTVSPropertyOp24
 70
     1
102
RTVSPropertyOp25
 70
     1
102
RTVSPropertyOp26
 70
     1
102
RTVSPropertyOp27
 70
     1
102
RTVSPropertyOp28
 70
     1
102
RTVSPropertyOp29
 70
     1
102
RTVSPropertyOp30
 70
     1
102
RTVSPropertyOp31
 70
     1
102
RTVSPropertyOp32
 70
     1
  0
XRECORD
  5
70C
102
{ACAD_REACTORS
330
70B
102
}
330
70B
100
AcDbXrecord
280
     1
102
RTVSPropertyOp0
 70
     0
102
RTVSPropertyOp1
 70
     0
102
RTVSPropertyOp2
 70
     0
102
RTVSPropertyOp3
 70
     0
102
RTVSPropertyOp4
 70
     0
102
RTVSPropertyOp5
 70
     0
102
RTVSPropertyOp6
 70
     0
102
RTVSPropertyOp7
 70
     0
102
RTVSPropertyOp8
 70
     0
102
RTVSPropertyOp9
 70
     0
102
RTVSPropertyOp10
 70
     0
102
RTVSPropertyOp11
 70
     0
102
RTVSPropertyOp12
 70
     0
102
RTVSPropertyOp13
 70
     0
102
RTVSPropertyOp14
 70
     2
102
RTVSPropertyOp15
 70
     0
102
RTVSPropertyOp16
 70
     0
102
RTVSPropertyOp17
 70
     0
102
RTVSPropertyOp18
 70
     0
102
RTVSPropertyOp19
 70
     0
102
RTVSPropertyOp20
 70
     0
102
RTVSPropertyOp21
 70
     0
102
RTVSPropertyOp22
 70
     0
102
RTVSPropertyOp23
 70
     0
102
RTVSPropertyOp24
 70
     0
102
RTVSPropertyOp25
 70
     0
102
RTVSPropertyOp26
 70
     0
102
RTVSPropertyOp27
 70
     0
102
RTVSPropertyOp28
 70
     0
102
RTVSPropertyOp29
 70
     0
102
RTVSPropertyOp30
 70
     0
102
RTVSPropertyOp31
 70
     0
102
RTVSPropertyOp32
 70
     0
  0
XRECORD
  5
6FA
102
{ACAD_REACTORS
330
6F9
102
}
330
6F9
100
AcDbXrecord
280
     1
102
RTVSPropertyOp0
 70
     1
102
RTVSPropertyOp1
 70
     1
102
RTVSPropertyOp2
 70
     1
102
RTVSPropertyOp3
 70
     1
102
RTVSPropertyOp4
 70
     1
102
RTVSPropertyOp5
 70
     1
102
RTVSPropertyOp6
 70
     1
102
RTVSPropertyOp7
 70
     1
102
RTVSPropertyOp8
 70
     1
102
RTVSPropertyOp9
 70
     1
102
RTVSPropertyOp10
 70
     1
102
RTVSPropertyOp11
 70
     1
102
RTVSPropertyOp12
 70
     1
102
RTVSPropertyOp13
 70
     1
102
RTVSPropertyOp14
 70
     1
102
RTVSPropertyOp15
 70
     1
102
RTVSPropertyOp16
 70
     1
102
RTVSPropertyOp17
 70
     1
102
RTVSPropertyOp18
 70
     1
102
RTVSPropertyOp19
 70
     1
102
RTVSPropertyOp20
 70
     1
102
RTVSPropertyOp21
 70
     1
102
RTVSPropertyOp22
 70
     1
102
RTVSPropertyOp23
 70
     1
102
RTVSPropertyOp24
 70
     1
102
RTVSPropertyOp25
 70
     1
102
RTVSPropertyOp26
 70
     1
102
RTVSPropertyOp27
 70
     1
102
RTVSPropertyOp28
 70
     1
102
RTVSPropertyOp29
 70
     1
102
RTVSPropertyOp30
 70
     1
102
RTVSPropertyOp31
 70
     1
102
RTVSPropertyOp32
 70
     1
  0
XRECORD
  5
6DE
102
{ACAD_REACTORS
330
6DD
102
}
330
6DD
100
AcDbXrecord
280
     1
102
RTVSPropertyOp0
 70
     1
102
RTVSPropertyOp1
 70
     1
102
RTVSPropertyOp2
 70
     1
102
RTVSPropertyOp3
 70
     1
102
RTVSPropertyOp4
 70
     1
102
RTVSPropertyOp5
 70
     1
102
RTVSPropertyOp6
 70
     1
102
RTVSPropertyOp7
 70
     1
102
RTVSPropertyOp8
 70
     1
102
RTVSPropertyOp9
 70
     1
102
RTVSPropertyOp10
 70
     1
102
RTVSPropertyOp11
 70
     1
102
RTVSPropertyOp12
 70
     1
102
RTVSPropertyOp13
 70
     1
102
RTVSPropertyOp14
 70
     1
102
RTVSPropertyOp15
 70
     1
102
RTVSPropertyOp16
 70
     1
102
RTVSPropertyOp17
 70
     1
102
RTVSPropertyOp18
 70
     1
102
RTVSPropertyOp19
 70
     1
102
RTVSPropertyOp20
 70
     1
102
RTVSPropertyOp21
 70
     1
102
RTVSPropertyOp22
 70
     1
102
RTVSPropertyOp23
 70
     1
102
RTVSPropertyOp24
 70
     1
102
RTVSPropertyOp25
 70
     1
102
RTVSPropertyOp26
 70
     1
102
RTVSPropertyOp27
 70
     1
102
RTVSPropertyOp28
 70
     1
102
RTVSPropertyOp29
 70
     1
102
RTVSPropertyOp30
 70
     1
102
RTVSPropertyOp31
 70
     1
102
RTVSPropertyOp32
 70
     1
  0
XRECORD
  5
6E0
102
{ACAD_REACTORS
330
6DF
102
}
330
6DF
100
AcDbXrecord
280
     1
102
RTVSPropertyOp0
 70
     1
102
RTVSPropertyOp1
 70
     1
102
RTVSPropertyOp2
 70
     1
102
RTVSPropertyOp3
 70
     1
102
RTVSPropertyOp4
 70
     1
102
RTVSPropertyOp5
 70
     1
102
RTVSPropertyOp6
 70
     1
102
RTVSPropertyOp7
 70
     1
102
RTVSPropertyOp8
 70
     1
102
RTVSPropertyOp9
 70
     1
102
RTVSPropertyOp10
 70
     1
102
RTVSPropertyOp11
 70
     1
102
RTVSPropertyOp12
 70
     1
102
RTVSPropertyOp13
 70
     1
102
RTVSPropertyOp14
 70
     1
102
RTVSPropertyOp15
 70
     1
102
RTVSPropertyOp16
 70
     1
102
RTVSPropertyOp17
 70
     1
102
RTVSPropertyOp18
 70
     1
102
RTVSPropertyOp19
 70
     1
102
RTVSPropertyOp20
 70
     1
102
RTVSPropertyOp21
 70
     1
102
RTVSPropertyOp22
 70
     1
102
RTVSPropertyOp23
 70
     1
102
RTVSPropertyOp24
 70
     1
102
RTVSPropertyOp25
 70
     1
102
RTVSPropertyOp26
 70
     1
102
RTVSPropertyOp27
 70
     1
102
RTVSPropertyOp28
 70
     1
102
RTVSPropertyOp29
 70
     1
102
RTVSPropertyOp30
 70
     1
102
RTVSPropertyOp31
 70
     1
102
RTVSPropertyOp32
 70
     1
  0
XRECORD
  5
6E2
102
{ACAD_REACTORS
330
6E1
102
}
330
6E1
100
AcDbXrecord
280
     1
102
RTVSPropertyOp0
 70
     1
102
RTVSPropertyOp1
 70
     1
102
RTVSPropertyOp2
 70
     1
102
RTVSPropertyOp3
 70
     1
102
RTVSPropertyOp4
 70
     1
102
RTVSPropertyOp5
 70
     1
102
RTVSPropertyOp6
 70
     1
102
RTVSPropertyOp7
 70
     1
102
RTVSPropertyOp8
 70
     1
102
RTVSPropertyOp9
 70
     1
102
RTVSPropertyOp10
 70
     1
102
RTVSPropertyOp11
 70
     1
102
RTVSPropertyOp12
 70
     1
102
RTVSPropertyOp13
 70
     1
102
RTVSPropertyOp14
 70
     1
102
RTVSPropertyOp15
 70
     1
102
RTVSPropertyOp16
 70
     1
102
RTVSPropertyOp17
 70
     1
102
RTVSPropertyOp18
 70
     1
102
RTVSPropertyOp19
 70
     1
102
RTVSPropertyOp20
 70
     1
102
RTVSPropertyOp21
 70
     1
102
RTVSPropertyOp22
 70
     1
102
RTVSPropertyOp23
 70
     1
102
RTVSPropertyOp24
 70
     1
102
RTVSPropertyOp25
 70
     1
102
RTVSPropertyOp26
 70
     1
102
RTVSPropertyOp27
 70
     1
102
RTVSPropertyOp28
 70
     1
102
RTVSPropertyOp29
 70
     1
102
RTVSPropertyOp30
 70
     1
102
RTVSPropertyOp31
 70
     1
102
RTVSPropertyOp32
 70
     1
  0
XRECORD
  5
6E4
102
{ACAD_REACTORS
330
6E3
102
}
330
6E3
100
AcDbXrecord
280
     1
102
RTVSPropertyOp0
 70
     1
102
RTVSPropertyOp1
 70
     1
102
RTVSPropertyOp2
 70
     1
102
RTVSPropertyOp3
 70
     1
102
RTVSPropertyOp4
 70
     1
102
RTVSPropertyOp5
 70
     1
102
RTVSPropertyOp6
 70
     1
102
RTVSPropertyOp7
 70
     1
102
RTVSPropertyOp8
 70
     1
102
RTVSPropertyOp9
 70
     1
102
RTVSPropertyOp10
 70
     1
102
RTVSPropertyOp11
 70
     1
102
RTVSPropertyOp12
 70
     1
102
RTVSPropertyOp13
 70
     1
102
RTVSPropertyOp14
 70
     1
102
RTVSPropertyOp15
 70
     1
102
RTVSPropertyOp16
 70
     1
102
RTVSPropertyOp17
 70
     1
102
RTVSPropertyOp18
 70
     1
102
RTVSPropertyOp19
 70
     1
102
RTVSPropertyOp20
 70
     1
102
RTVSPropertyOp21
 70
     1
102
RTVSPropertyOp22
 70
     1
102
RTVSPropertyOp23
 70
     1
102
RTVSPropertyOp24
 70
     1
102
RTVSPropertyOp25
 70
     1
102
RTVSPropertyOp26
 70
     1
102
RTVSPropertyOp27
 70
     1
102
RTVSPropertyOp28
 70
     1
102
RTVSPropertyOp29
 70
     1
102
RTVSPropertyOp30
 70
     1
102
RTVSPropertyOp31
 70
     1
102
RTVSPropertyOp32
 70
     1
  0
XRECORD
  5
6EC
102
{ACAD_REACTORS
330
6EB
102
}
330
6EB
100
AcDbXrecord
280
     1
102
RTVSPropertyOp0
 70
     1
102
RTVSPropertyOp1
 70
     1
102
RTVSPropertyOp2
 70
     1
102
RTVSPropertyOp3
 70
     1
102
RTVSPropertyOp4
 70
     1
102
RTVSPropertyOp5
 70
     1
102
RTVSPropertyOp6
 70
     1
102
RTVSPropertyOp7
 70
     1
102
RTVSPropertyOp8
 70
     1
102
RTVSPropertyOp9
 70
     1
102
RTVSPropertyOp10
 70
     1
102
RTVSPropertyOp11
 70
     1
102
RTVSPropertyOp12
 70
     1
102
RTVSPropertyOp13
 70
     1
102
RTVSPropertyOp14
 70
     1
102
RTVSPropertyOp15
 70
     1
102
RTVSPropertyOp16
 70
     1
102
RTVSPropertyOp17
 70
     1
102
RTVSPropertyOp18
 70
     1
102
RTVSPropertyOp19
 70
     1
102
RTVSPropertyOp20
 70
     1
102
RTVSPropertyOp21
 70
     1
102
RTVSPropertyOp22
 70
     1
102
RTVSPropertyOp23
 70
     1
102
RTVSPropertyOp24
 70
     1
102
RTVSPropertyOp25
 70
     1
102
RTVSPropertyOp26
 70
     1
102
RTVSPropertyOp27
 70
     1
102
RTVSPropertyOp28
 70
     1
102
RTVSPropertyOp29
 70
     1
102
RTVSPropertyOp30
 70
     1
102
RTVSPropertyOp31
 70
     1
102
RTVSPropertyOp32
 70
     1
  0
XRECORD
  5
708
102
{ACAD_REACTORS
330
707
102
}
330
707
100
AcDbXrecord
280
     1
102
RTVSPropertyOp0
 70
     0
102
RTVSPropertyOp1
 70
     0
102
RTVSPropertyOp2
 70
     0
102
RTVSPropertyOp3
 70
     0
102
RTVSPropertyOp4
 70
     0
102
RTVSPropertyOp5
 70
     0
102
RTVSPropertyOp6
 70
     0
102
RTVSPropertyOp7
 70
     0
102
RTVSPropertyOp8
 70
     0
102
RTVSPropertyOp9
 70
     0
102
RTVSPropertyOp10
 70
     0
102
RTVSPropertyOp11
 70
     0
102
RTVSPropertyOp12
 70
     0
102
RTVSPropertyOp13
 70
     0
102
RTVSPropertyOp14
 70
     2
102
RTVSPropertyOp15
 70
     0
102
RTVSPropertyOp16
 70
     0
102
RTVSPropertyOp17
 70
     0
102
RTVSPropertyOp18
 70
     0
102
RTVSPropertyOp19
 70
     0
102
RTVSPropertyOp20
 70
     0
102
RTVSPropertyOp21
 70
     0
102
RTVSPropertyOp22
 70
     0
102
RTVSPropertyOp23
 70
     0
102
RTVSPropertyOp24
 70
     0
102
RTVSPropertyOp25
 70
     0
102
RTVSPropertyOp26
 70
     0
102
RTVSPropertyOp27
 70
     0
102
RTVSPropertyOp28
 70
     0
102
RTVSPropertyOp29
 70
     0
102
RTVSPropertyOp30
 70
     0
102
RTVSPropertyOp31
 70
     0
102
RTVSPropertyOp32
 70
     0
  0
XRECORD
  5
6F8
102
{ACAD_REACTORS
330
6F7
102
}
330
6F7
100
AcDbXrecord
280
     1
102
RTVSPropertyOp0
 70
     1
102
RTVSPropertyOp1
 70
     1
102
RTVSPropertyOp2
 70
     1
102
RTVSPropertyOp3
 70
     1
102
RTVSPropertyOp4
 70
     1
102
RTVSPropertyOp5
 70
     1
102
RTVSPropertyOp6
 70
     1
102
RTVSPropertyOp7
 70
     1
102
RTVSPropertyOp8
 70
     1
102
RTVSPropertyOp9
 70
     1
102
RTVSPropertyOp10
 70
     1
102
RTVSPropertyOp11
 70
     1
102
RTVSPropertyOp12
 70
     1
102
RTVSPropertyOp13
 70
     1
102
RTVSPropertyOp14
 70
     1
102
RTVSPropertyOp15
 70
     1
102
RTVSPropertyOp16
 70
     1
102
RTVSPropertyOp17
 70
     1
102
RTVSPropertyOp18
 70
     1
102
RTVSPropertyOp19
 70
     1
102
RTVSPropertyOp20
 70
     1
102
RTVSPropertyOp21
 70
     1
102
RTVSPropertyOp22
 70
     1
102
RTVSPropertyOp23
 70
     1
102
RTVSPropertyOp24
 70
     1
102
RTVSPropertyOp25
 70
     1
102
RTVSPropertyOp26
 70
     1
102
RTVSPropertyOp27
 70
     1
102
RTVSPropertyOp28
 70
     1
102
RTVSPropertyOp29
 70
     1
102
RTVSPropertyOp30
 70
     1
102
RTVSPropertyOp31
 70
     1
102
RTVSPropertyOp32
 70
     1
  0
XRECORD
  5
70A
102
{ACAD_REACTORS
330
709
102
}
330
709
100
AcDbXrecord
280
     1
102
RTVSPropertyOp0
 70
     0
102
RTVSPropertyOp1
 70
     0
102
RTVSPropertyOp2
 70
     0
102
RTVSPropertyOp3
 70
     0
102
RTVSPropertyOp4
 70
     0
102
RTVSPropertyOp5
 70
     0
102
RTVSPropertyOp6
 70
     0
102
RTVSPropertyOp7
 70
     0
102
RTVSPropertyOp8
 70
     0
102
RTVSPropertyOp9
 70
     0
102
RTVSPropertyOp10
 70
     0
102
RTVSPropertyOp11
 70
     0
102
RTVSPropertyOp12
 70
     0
102
RTVSPropertyOp13
 70
     0
102
RTVSPropertyOp14
 70
     2
102
RTVSPropertyOp15
 70
     0
102
RTVSPropertyOp16
 70
     0
102
RTVSPropertyOp17
 70
     0
102
RTVSPropertyOp18
 70
     0
102
RTVSPropertyOp19
 70
     0
102
RTVSPropertyOp20
 70
     0
102
RTVSPropertyOp21
 70
     0
102
RTVSPropertyOp22
 70
     0
102
RTVSPropertyOp23
 70
     0
102
RTVSPropertyOp24
 70
     0
102
RTVSPropertyOp25
 70
     0
102
RTVSPropertyOp26
 70
     0
102
RTVSPropertyOp27
 70
     0
102
RTVSPropertyOp28
 70
     0
102
RTVSPropertyOp29
 70
     0
102
RTVSPropertyOp30
 70
     0
102
RTVSPropertyOp31
 70
     0
102
RTVSPropertyOp32
 70
     0
  0
XRECORD
  5
6F0
102
{ACAD_REACTORS
330
6EF
102
}
330
6EF
100
AcDbXrecord
280
     1
102
RTVSPropertyOp0
 70
     1
102
RTVSPropertyOp1
 70
     1
102
RTVSPropertyOp2
 70
     1
102
RTVSPropertyOp3
 70
     1
102
RTVSPropertyOp4
 70
     1
102
RTVSPropertyOp5
 70
     1
102
RTVSPropertyOp6
 70
     1
102
RTVSPropertyOp7
 70
     1
102
RTVSPropertyOp8
 70
     1
102
RTVSPropertyOp9
 70
     1
102
RTVSPropertyOp10
 70
     1
102
RTVSPropertyOp11
 70
     1
102
RTVSPropertyOp12
 70
     1
102
RTVSPropertyOp13
 70
     1
102
RTVSPropertyOp14
 70
     1
102
RTVSPropertyOp15
 70
     1
102
RTVSPropertyOp16
 70
     1
102
RTVSPropertyOp17
 70
     1
102
RTVSPropertyOp18
 70
     1
102
RTVSPropertyOp19
 70
     1
102
RTVSPropertyOp20
 70
     1
102
RTVSPropertyOp21
 70
     1
102
RTVSPropertyOp22
 70
     1
102
RTVSPropertyOp23
 70
     1
102
RTVSPropertyOp24
 70
     1
102
RTVSPropertyOp25
 70
     1
102
RTVSPropertyOp26
 70
     1
102
RTVSPropertyOp27
 70
     1
102
RTVSPropertyOp28
 70
     1
102
RTVSPropertyOp29
 70
     1
102
RTVSPropertyOp30
 70
     1
102
RTVSPropertyOp31
 70
     1
102
RTVSPropertyOp32
 70
     1
  0
XRECORD
  5
706
102
{ACAD_REACTORS
330
705
102
}
330
705
100
AcDbXrecord
280
     1
102
RTVSPropertyOp0
 70
     1
102
RTVSPropertyOp1
 70
     1
102
RTVSPropertyOp2
 70
     1
102
RTVSPropertyOp3
 70
     1
102
RTVSPropertyOp4
 70
     1
102
RTVSPropertyOp5
 70
     1
102
RTVSPropertyOp6
 70
     1
102
RTVSPropertyOp7
 70
     1
102
RTVSPropertyOp8
 70
     1
102
RTVSPropertyOp9
 70
     1
102
RTVSPropertyOp10
 70
     1
102
RTVSPropertyOp11
 70
     1
102
RTVSPropertyOp12
 70
     1
102
RTVSPropertyOp13
 70
     1
102
RTVSPropertyOp14
 70
     1
102
RTVSPropertyOp15
 70
     1
102
RTVSPropertyOp16
 70
     1
102
RTVSPropertyOp17
 70
     1
102
RTVSPropertyOp18
 70
     1
102
RTVSPropertyOp19
 70
     1
102
RTVSPropertyOp20
 70
     1
102
RTVSPropertyOp21
 70
     1
102
RTVSPropertyOp22
 70
     1
102
RTVSPropertyOp23
 70
     1
102
RTVSPropertyOp24
 70
     1
102
RTVSPropertyOp25
 70
     1
102
RTVSPropertyOp26
 70
     1
102
RTVSPropertyOp27
 70
     1
102
RTVSPropertyOp28
 70
     1
102
RTVSPropertyOp29
 70
     1
102
RTVSPropertyOp30
 70
     1
102
RTVSPropertyOp31
 70
     1
102
RTVSPropertyOp32
 70
     1
  0
XRECORD
  5
704
102
{ACAD_REACTORS
330
703
102
}
330
703
100
AcDbXrecord
280
     1
102
RTVSPropertyOp0
 70
     1
102
RTVSPropertyOp1
 70
     1
102
RTVSPropertyOp2
 70
     1
102
RTVSPropertyOp3
 70
     1
102
RTVSPropertyOp4
 70
     1
102
RTVSPropertyOp5
 70
     1
102
RTVSPropertyOp6
 70
     1
102
RTVSPropertyOp7
 70
     1
102
RTVSPropertyOp8
 70
     1
102
RTVSPropertyOp9
 70
     1
102
RTVSPropertyOp10
 70
     1
102
RTVSPropertyOp11
 70
     1
102
RTVSPropertyOp12
 70
     1
102
RTVSPropertyOp13
 70
     1
102
RTVSPropertyOp14
 70
     1
102
RTVSPropertyOp15
 70
     1
102
RTVSPropertyOp16
 70
     1
102
RTVSPropertyOp17
 70
     1
102
RTVSPropertyOp18
 70
     1
102
RTVSPropertyOp19
 70
     1
102
RTVSPropertyOp20
 70
     1
102
RTVSPropertyOp21
 70
     1
102
RTVSPropertyOp22
 70
     1
102
RTVSPropertyOp23
 70
     1
102
RTVSPropertyOp24
 70
     1
102
RTVSPropertyOp25
 70
     1
102
RTVSPropertyOp26
 70
     1
102
RTVSPropertyOp27
 70
     1
102
RTVSPropertyOp28
 70
     1
102
RTVSPropertyOp29
 70
     1
102
RTVSPropertyOp30
 70
     1
102
RTVSPropertyOp31
 70
     1
102
RTVSPropertyOp32
 70
     1
  0
XRECORD
  5
6FE
102
{ACAD_REACTORS
330
6FD
102
}
330
6FD
100
AcDbXrecord
280
     1
102
RTVSPropertyOp0
 70
     1
102
RTVSPropertyOp1
 70
     1
102
RTVSPropertyOp2
 70
     1
102
RTVSPropertyOp3
 70
     1
102
RTVSPropertyOp4
 70
     1
102
RTVSPropertyOp5
 70
     1
102
RTVSPropertyOp6
 70
     1
102
RTVSPropertyOp7
 70
     1
102
RTVSPropertyOp8
 70
     1
102
RTVSPropertyOp9
 70
     1
102
RTVSPropertyOp10
 70
     1
102
RTVSPropertyOp11
 70
     1
102
RTVSPropertyOp12
 70
     1
102
RTVSPropertyOp13
 70
     1
102
RTVSPropertyOp14
 70
     1
102
RTVSPropertyOp15
 70
     1
102
RTVSPropertyOp16
 70
     1
102
RTVSPropertyOp17
 70
     1
102
RTVSPropertyOp18
 70
     1
102
RTVSPropertyOp19
 70
     1
102
RTVSPropertyOp20
 70
     1
102
RTVSPropertyOp21
 70
     1
102
RTVSPropertyOp22
 70
     1
102
RTVSPropertyOp23
 70
     1
102
RTVSPropertyOp24
 70
     1
102
RTVSPropertyOp25
 70
     1
102
RTVSPropertyOp26
 70
     1
102
RTVSPropertyOp27
 70
     1
102
RTVSPropertyOp28
 70
     1
102
RTVSPropertyOp29
 70
     1
102
RTVSPropertyOp30
 70
     1
102
RTVSPropertyOp31
 70
     1
102
RTVSPropertyOp32
 70
     1
  0
XRECORD
  5
700
102
{ACAD_REACTORS
330
6FF
102
}
330
6FF
100
AcDbXrecord
280
     1
102
RTVSPropertyOp0
 70
     1
102
RTVSPropertyOp1
 70
     1
102
RTVSPropertyOp2
 70
     1
102
RTVSPropertyOp3
 70
     1
102
RTVSPropertyOp4
 70
     1
102
RTVSPropertyOp5
 70
     1
102
RTVSPropertyOp6
 70
     1
102
RTVSPropertyOp7
 70
     1
102
RTVSPropertyOp8
 70
     1
102
RTVSPropertyOp9
 70
     1
102
RTVSPropertyOp10
 70
     1
102
RTVSPropertyOp11
 70
     1
102
RTVSPropertyOp12
 70
     1
102
RTVSPropertyOp13
 70
     1
102
RTVSPropertyOp14
 70
     1
102
RTVSPropertyOp15
 70
     1
102
RTVSPropertyOp16
 70
     1
102
RTVSPropertyOp17
 70
     1
102
RTVSPropertyOp18
 70
     1
102
RTVSPropertyOp19
 70
     1
102
RTVSPropertyOp20
 70
     1
102
RTVSPropertyOp21
 70
     1
102
RTVSPropertyOp22
 70
     1
102
RTVSPropertyOp23
 70
     1
102
RTVSPropertyOp24
 70
     1
102
RTVSPropertyOp25
 70
     1
102
RTVSPropertyOp26
 70
     1
102
RTVSPropertyOp27
 70
     1
102
RTVSPropertyOp28
 70
     1
102
RTVSPropertyOp29
 70
     1
102
RTVSPropertyOp30
 70
     1
102
RTVSPropertyOp31
 70
     1
102
RTVSPropertyOp32
 70
     1
  0
XRECORD
  5
6F6
102
{ACAD_REACTORS
330
6F5
102
}
330
6F5
100
AcDbXrecord
280
     1
102
RTVSPropertyOp0
 70
     1
102
RTVSPropertyOp1
 70
     1
102
RTVSPropertyOp2
 70
     1
102
RTVSPropertyOp3
 70
     1
102
RTVSPropertyOp4
 70
     1
102
RTVSPropertyOp5
 70
     1
102
RTVSPropertyOp6
 70
     1
102
RTVSPropertyOp7
 70
     1
102
RTVSPropertyOp8
 70
     1
102
RTVSPropertyOp9
 70
     1
102
RTVSPropertyOp10
 70
     1
102
RTVSPropertyOp11
 70
     1
102
RTVSPropertyOp12
 70
     1
102
RTVSPropertyOp13
 70
     1
102
RTVSPropertyOp14
 70
     1
102
RTVSPropertyOp15
 70
     1
102
RTVSPropertyOp16
 70
     1
102
RTVSPropertyOp17
 70
     1
102
RTVSPropertyOp18
 70
     1
102
RTVSPropertyOp19
 70
     1
102
RTVSPropertyOp20
 70
     1
102
RTVSPropertyOp21
 70
     1
102
RTVSPropertyOp22
 70
     1
102
RTVSPropertyOp23
 70
     1
102
RTVSPropertyOp24
 70
     1
102
RTVSPropertyOp25
 70
     1
102
RTVSPropertyOp26
 70
     1
102
RTVSPropertyOp27
 70
     1
102
RTVSPropertyOp28
 70
     1
102
RTVSPropertyOp29
 70
     1
102
RTVSPropertyOp30
 70
     1
102
RTVSPropertyOp31
 70
     1
102
RTVSPropertyOp32
 70
     1
  0
XRECORD
  5
6EA
102
{ACAD_REACTORS
330
6E9
102
}
330
6E9
100
AcDbXrecord
280
     1
102
RTVSPropertyOp0
 70
     1
102
RTVSPropertyOp1
 70
     1
102
RTVSPropertyOp2
 70
     1
102
RTVSPropertyOp3
 70
     1
102
RTVSPropertyOp4
 70
     1
102
RTVSPropertyOp5
 70
     1
102
RTVSPropertyOp6
 70
     1
102
RTVSPropertyOp7
 70
     1
102
RTVSPropertyOp8
 70
     1
102
RTVSPropertyOp9
 70
     1
102
RTVSPropertyOp10
 70
     1
102
RTVSPropertyOp11
 70
     1
102
RTVSPropertyOp12
 70
     1
102
RTVSPropertyOp13
 70
     1
102
RTVSPropertyOp14
 70
     1
102
RTVSPropertyOp15
 70
     1
102
RTVSPropertyOp16
 70
     1
102
RTVSPropertyOp17
 70
     1
102
RTVSPropertyOp18
 70
     1
102
RTVSPropertyOp19
 70
     1
102
RTVSPropertyOp20
 70
     1
102
RTVSPropertyOp21
 70
     1
102
RTVSPropertyOp22
 70
     1
102
RTVSPropertyOp23
 70
     1
102
RTVSPropertyOp24
 70
     1
102
RTVSPropertyOp25
 70
     1
102
RTVSPropertyOp26
 70
     1
102
RTVSPropertyOp27
 70
     1
102
RTVSPropertyOp28
 70
     1
102
RTVSPropertyOp29
 70
     1
102
RTVSPropertyOp30
 70
     1
102
RTVSPropertyOp31
 70
     1
102
RTVSPropertyOp32
 70
     1
  0
XRECORD
  5
702
102
{ACAD_REACTORS
330
701
102
}
330
701
100
AcDbXrecord
280
     1
102
RTVSPropertyOp0
 70
     1
102
RTVSPropertyOp1
 70
     1
102
RTVSPropertyOp2
 70
     1
102
RTVSPropertyOp3
 70
     1
102
RTVSPropertyOp4
 70
     1
102
RTVSPropertyOp5
 70
     1
102
RTVSPropertyOp6
 70
     1
102
RTVSPropertyOp7
 70
     1
102
RTVSPropertyOp8
 70
     1
102
RTVSPropertyOp9
 70
     1
102
RTVSPropertyOp10
 70
     1
102
RTVSPropertyOp11
 70
     1
102
RTVSPropertyOp12
 70
     1
102
RTVSPropertyOp13
 70
     1
102
RTVSPropertyOp14
 70
     1
102
RTVSPropertyOp15
 70
     1
102
RTVSPropertyOp16
 70
     1
102
RTVSPropertyOp17
 70
     1
102
RTVSPropertyOp18
 70
     1
102
RTVSPropertyOp19
 70
     1
102
RTVSPropertyOp20
 70
     1
102
RTVSPropertyOp21
 70
     1
102
RTVSPropertyOp22
 70
     1
102
RTVSPropertyOp23
 70
     1
102
RTVSPropertyOp24
 70
     1
102
RTVSPropertyOp25
 70
     1
102
RTVSPropertyOp26
 70
     1
102
RTVSPropertyOp27
 70
     1
102
RTVSPropertyOp28
 70
     1
102
RTVSPropertyOp29
 70
     1
102
RTVSPropertyOp30
 70
     1
102
RTVSPropertyOp31
 70
     1
102
RTVSPropertyOp32
 70
     1
  0
ENDSEC
  0
EOF
