  0
SECTION
  2
HEADER
  9
$ACADVER
  1
AC1021
  9
$ACADMAINTVER
 70
    50
  9
$DWGCODEPAGE
  3
ANSI_1252
  9
$LASTSAVEDBY
  1
DBrewer
  9
$INSBASE
 10
0.0
 20
0.0
 30
0.0
  9
$EXTMIN
 10
-0.5007628928861117
 20
-0.5005798074410066
 30
-0.0000000349181948
  9
$EXTMAX
 10
11.50064091885005
 20
9.000579895919351
 30
0.0000000814935746
  9
$LIMMIN
 10
0.0
 20
0.0
  9
$LIMMAX
 10
12.0
 20
9.0
  9
$ORTHOMODE
 70
     0
  9
$REGENMODE
 70
     1
  9
$FILLMODE
 70
     1
  9
$QTEXTMODE
 70
     0
  9
$MIRRTEXT
 70
     1
  9
$LTSCALE
 40
0.25
  9
$ATTMODE
 70
     1
  9
$TEXTSIZE
 40
0.07
  9
$TRACEWID
 40
0.05
  9
$TEXTSTYLE
  7
ARIAL2
  9
$CLAYER
  8
PAPER
  9
$CELTYPE
  6
BYLAYER
  9
$CECOLOR
 62
   256
  9
$CELTSCALE
 40
1.0
  9
$DISPSILH
 70
     0
  9
$DIMSCALE
 40
1.0
  9
$DIMASZ
 40
0.07
  9
$DIMEXO
 40
0.09
  9
$DIMDLI
 40
0.38
  9
$DIMRND
 40
0.0
  9
$DIMDLE
 40
0.0
  9
$DIMEXE
 40
0.06
  9
$DIMTP
 40
0.0
  9
$DIMTM
 40
0.0
  9
$DIMTXT
 40
0.07
  9
$DIMCEN
 40
0.09
  9
$DIMTSZ
 40
0.0
  9
$DIMTOL
 70
     0
  9
$DIMLIM
 70
     0
  9
$DIMTIH
 70
     0
  9
$DIMTOH
 70
     1
  9
$DIMSE1
 70
     1
  9
$DIMSE2
 70
     0
  9
$DIMTAD
 70
     0
  9
$DIMZIN
 70
     0
  9
$DIMBLK
  1

  9
$DIMASO
 70
     1
  9
$DIMSHO
 70
     0
  9
$DIMPOST
  1

  9
$DIMAPOST
  1

  9
$DIMALT
 70
     0
  9
$DIMALTD
 70
     2
  9
$DIMALTF
 40
25.4
  9
$DIMLFAC
 40
1.0
  9
$DIMTOFL
 70
     0
  9
$DIMTVP
 40
0.0
  9
$DIMTIX
 70
     1
  9
$DIMSOXD
 70
     0
  9
$DIMSAH
 70
     0
  9
$DIMBLK1
  1

  9
$DIMBLK2
  1

  9
$DIMSTYLE
  2
STANDARD
  9
$DIMCLRD
 70
     0
  9
$DIMCLRE
 70
     0
  9
$DIMCLRT
 70
     0
  9
$DIMTFAC
 40
1.0
  9
$DIMGAP
 40
0.09
  9
$DIMJUST
 70
     0
  9
$DIMSD1
 70
     0
  9
$DIMSD2
 70
     0
  9
$DIMTOLJ
 70
     1
  9
$DIMTZIN
 70
     0
  9
$DIMALTZ
 70
     0
  9
$DIMALTTZ
 70
     0
  9
$DIMUPT
 70
     0
  9
$DIMDEC
 70
     4
  9
$DIMTDEC
 70
     4
  9
$DIMALTU
 70
     2
  9
$DIMALTTD
 70
     2
  9
$DIMTXSTY
  7
S
  9
$DIMAUNIT
 70
     0
  9
$DIMADEC
 70
     0
  9
$DIMALTRND
 40
0.0
  9
$DIMAZIN
 70
     0
  9
$DIMDSEP
 70
    46
  9
$DIMATFIT
 70
     3
  9
$DIMFRAC
 70
     0
  9
$DIMLDRBLK
  1

  9
$DIMLUNIT
 70
     2
  9
$DIMLWD
 70
    -2
  9
$DIMLWE
 70
    -2
  9
$DIMTMOVE
 70
     2
  9
$DIMFXL
 40
1.0
  9
$DIMFXLON
 70
     0
  9
$DIMJOGANG
 40
0.7853981633974483
  9
$DIMTFILL
 70
     0
  9
$DIMTFILLCLR
 70
     0
  9
$DIMARCSYM
 70
     0
  9
$DIMLTYPE
  6

  9
$DIMLTEX1
  6

  9
$DIMLTEX2
  6

  9
$LUNITS
 70
     2
  9
$LUPREC
 70
     4
  9
$SKETCHINC
 40
0.1
  9
$FILLETRAD
 40
0.0277878858050222
  9
$AUNITS
 70
     0
  9
$AUPREC
 70
     0
  9
$MENU
  1
ACAD
  9
$ELEVATION
 40
0.0
  9
$PELEVATION
 40
0.0
  9
$THICKNESS
 40
0.0
  9
$LIMCHECK
 70
     0
  9
$CHAMFERA
 40
0.0
  9
$CHAMFERB
 40
0.0
  9
$CHAMFERC
 40
0.0
  9
$CHAMFERD
 40
0.0
  9
$SKPOLY
 70
     0
  9
$TDCREATE
 40
2449766.715280787
  9
$TDUCREATE
 40
2449766.881947454
  9
$TDUPDATE
 40
2455709.564317789
  9
$TDUUPDATE
 40
2455709.730984456
  9
$TDINDWG
 40
0.0282542708
  9
$TDUSRTIMER
 40
0.0282542708
  9
$USRTIMER
 70
     1
  9
$ANGBASE
 50
0.0
  9
$ANGDIR
 70
     0
  9
$PDMODE
 70
     0
  9
$PDSIZE
 40
0.0
  9
$PLINEWID
 40
0.015625
  9
$SPLFRAME
 70
     0
  9
$SPLINETYPE
 70
     6
  9
$SPLINESEGS
 70
     8
  9
$HANDSEED
  5
77C
  9
$SURFTAB1
 70
     6
  9
$SURFTAB2
 70
     6
  9
$SURFTYPE
 70
     6
  9
$SURFU
 70
     6
  9
$SURFV
 70
     6
  9
$UCSBASE
  2

  9
$UCSNAME
  2

  9
$UCSORG
 10
0.0
 20
0.0
 30
0.0
  9
$UCSXDIR
 10
1.0
 20
0.0
 30
0.0
  9
$UCSYDIR
 10
0.0
 20
1.0
 30
0.0
  9
$UCSORTHOREF
  2

  9
$UCSORTHOVIEW
 70
     0
  9
$UCSORGTOP
 10
0.0
 20
0.0
 30
0.0
  9
$UCSORGBOTTOM
 10
0.0
 20
0.0
 30
0.0
  9
$UCSORGLEFT
 10
0.0
 20
0.0
 30
0.0
  9
$UCSORGRIGHT
 10
0.0
 20
0.0
 30
0.0
  9
$UCSORGFRONT
 10
0.0
 20
0.0
 30
0.0
  9
$UCSORGBACK
 10
0.0
 20
0.0
 30
0.0
  9
$PUCSBASE
  2

  9
$PUCSNAME
  2

  9
$PUCSORG
 10
0.0
 20
0.0
 30
0.0
  9
$PUCSXDIR
 10
1.0
 20
0.0
 30
0.0
  9
$PUCSYDIR
 10
0.0
 20
1.0
 30
0.0
  9
$PUCSORTHOREF
  2

  9
$PUCSORTHOVIEW
 70
     0
  9
$PUCSORGTOP
 10
0.0
 20
0.0
 30
0.0
  9
$PUCSORGBOTTOM
 10
0.0
 20
0.0
 30
0.0
  9
$PUCSORGLEFT
 10
0.0
 20
0.0
 30
0.0
  9
$PUCSORGRIGHT
 10
0.0
 20
0.0
 30
0.0
  9
$PUCSORGFRONT
 10
0.0
 20
0.0
 30
0.0
  9
$PUCSORGBACK
 10
0.0
 20
0.0
 30
0.0
  9
$USERI1
 70
     0
  9
$USERI2
 70
     0
  9
$USERI3
 70
     0
  9
$USERI4
 70
     0
  9
$USERI5
 70
     0
  9
$USERR1
 40
0.0
  9
$USERR2
 40
0.0
  9
$USERR3
 40
0.0
  9
$USERR4
 40
0.0
  9
$USERR5
 40
0.0
  9
$WORLDVIEW
 70
     1
  9
$SHADEDGE
 70
     3
  9
$SHADEDIF
 70
    70
  9
$TILEMODE
 70
     1
  9
$MAXACTVP
 70
    16
  9
$PINSBASE
 10
0.0
 20
0.0
 30
0.0
  9
$PLIMCHECK
 70
     0
  9
$PEXTMIN
 10
1.000000000000000E+20
 20
1.000000000000000E+20
 30
1.000000000000000E+20
  9
$PEXTMAX
 10
-1.000000000000000E+20
 20
-1.000000000000000E+20
 30
-1.000000000000000E+20
  9
$PLIMMIN
 10
0.0
 20
0.0
  9
$PLIMMAX
 10
12.0
 20
9.0
  9
$UNITMODE
 70
     0
  9
$VISRETAIN
 70
     0
  9
$PLINEGEN
 70
     0
  9
$PSLTSCALE
 70
     0
  9
$TREEDEPTH
 70
  3020
  9
$CMLSTYLE
  2
STANDARD
  9
$CMLJUST
 70
     0
  9
$CMLSCALE
 40
1.0
  9
$PROXYGRAPHICS
 70
     1
  9
$MEASUREMENT
 70
     0
  9
$CELWEIGHT
370
    -1
  9
$ENDCAPS
280
     0
  9
$JOINSTYLE
280
     0
  9
$LWDISPLAY
290
     0
  9
$INSUNITS
 70
     0
  9
$HYPERLINKBASE
  1

  9
$STYLESHEET
  1
monochrome.ctb
  9
$XEDIT
290
     1
  9
$CEPSNTYPE
380
     0
  9
$PSTYLEMODE
290
     1
  9
$FINGERPRINTGUID
  2
{FBDC1B65-F08C-11D4-8FEB-0001036949CE}
  9
$VERSIONGUID
  2
{CB057371-266D-4CDC-9F08-F92D3F169C55}
  9
$EXTNAMES
290
     1
  9
$PSVPSCALE
 40
0.0
  9
$OLESTARTUP
290
     0
  9
$SORTENTS
280
   127
  9
$INDEXCTL
280
     0
  9
$HIDETEXT
280
     0
  9
$XCLIPFRAME
290
     0
  9
$HALOGAP
280
     0
  9
$OBSCOLOR
 70
   257
  9
$OBSLTYPE
280
     0
  9
$INTERSECTIONDISPLAY
280
     0
  9
$INTERSECTIONCOLOR
 70
   257
  9
$DIMASSOC
280
     1
  9
$PROJECTNAME
  1

  9
$CAMERADISPLAY
290
     0
  9
$LENSLENGTH
 40
50.0
  9
$CAMERAHEIGHT
 40
0.0
  9
$STEPSPERSEC
 40
2.0
  9
$STEPSIZE
 40
6.0
  9
$3DDWFPREC
 40
2.0
  9
$PSOLWIDTH
 40
0.25
  9
$PSOLHEIGHT
 40
4.0
  9
$LOFTANG1
 40
1.570796326794896
  9
$LOFTANG2
 40
1.570796326794896
  9
$LOFTMAG1
 40
0.0
  9
$LOFTMAG2
 40
0.0
  9
$LOFTPARAM
 70
     7
  9
$LOFTNORMALS
280
     1
  9
$LATITUDE
 40
37.795
  9
$LONGITUDE
 40
-122.394
  9
$NORTHDIRECTION
 40
0.0
  9
$TIMEZONE
 70
 -8000
  9
$LIGHTGLYPHDISPLAY
280
     1
  9
$TILEMODELIGHTSYNCH
280
     1
  9
$CMATERIAL
347
689
  9
$SOLIDHIST
280
     1
  9
$SHOWHIST
280
     1
  9
$DWFFRAME
280
     2
  9
$DGNFRAME
280
     0
  9
$REALWORLDSCALE
290
     1
  9
$INTERFERECOLOR
 62
     1
  9
$INTERFEREOBJVS
345
6AB
  9
$INTERFEREVPVS
346
6A8
  9
$CSHADOW
280
     0
  9
$SHADOWPLANELOCATION
 40
0.0
  0
ENDSEC
  0
SECTION
  2
CLASSES
  0
CLASS
  1
DICTIONARYVAR
  2
AcDbDictionaryVar
  3
ObjectDBX Classes
 90
        0
 91
       17
280
     0
281
     0
  0
CLASS
  1
ACDBDICTIONARYWDFLT
  2
AcDbDictionaryWithDefault
  3
ObjectDBX Classes
 90
        0
 91
        1
280
     0
281
     0
  0
CLASS
  1
MATERIAL
  2
AcDbMaterial
  3
ObjectDBX Classes
 90
     1153
 91
        3
280
     0
281
     0
  0
CLASS
  1
VISUALSTYLE
  2
AcDbVisualStyle
  3
ObjectDBX Classes
 90
     4095
 91
       24
280
     0
281
     0
  0
CLASS
  1
TABLESTYLE
  2
AcDbTableStyle
  3
ObjectDBX Classes
 90
     4095
 91
        1
280
     0
281
     0
  0
CLASS
  1
SCALE
  2
AcDbScale
  3
ObjectDBX Classes
 90
     1153
 91
       17
280
     0
281
     0
  0
CLASS
  1
MLEADERSTYLE
  2
AcDbMLeaderStyle
  3
ACDB_MLEADERSTYLE_CLASS
 90
     4095
 91
        1
280
     0
281
     0
  0
CLASS
  1
CELLSTYLEMAP
  2
AcDbCellStyleMap
  3
ObjectDBX Classes
 90
     1152
 91
        2
280
     0
281
     0
  0
ENDSEC
  0
SECTION
  2
TABLES
  0
TABLE
  2
VPORT
  5
8
330
0
100
AcDbSymbolTable
 70
     1
  0
VPORT
  5
686
330
8
100
AcDbSymbolTableRecord
100
AcDbViewportTableRecord
  2
*Active
 70
     0
 10
0.0
 20
0.0
 11
1.0
 21
1.0
 12
5.142620505717363
 22
4.287753794556785
 13
0.0
 23
0.0
 14
0.03125
 24
0.03125
 15
0.0
 25
0.0
 16
0.0
 26
0.0
 36
1.0
 17
0.3573185072646075
 27
-0.0377537503176128
 37
-0.833359574243258
 40
9.566119884914147
 41
1.448863636363636
 42
50.0
 43
0.0
 44
0.0
 50
0.0
 51
0.0
 71
     0
 72
   100
 73
     1
 74
     0
 75
     0
 76
     0
 77
     0
 78
     0
281
     0
 65
     1
110
0.0
120
0.0
130
0.0
111
1.0
121
0.0
131
0.0
112
0.0
122
1.0
132
0.0
 79
     0
146
0.0
348
6A7
 60
     3
 61
     5
292
     1
282
     1
141
0.0
142
0.0
 63
   250
421
  3355443
  0
ENDTAB
  0
TABLE
  2
LTYPE
  5
5
330
0
100
AcDbSymbolTable
 70
     4
  0
LTYPE
  5
11
330
5
100
AcDbSymbolTableRecord
100
AcDbLinetypeTableRecord
  2
BYBLOCK
 70
     0
  3

 72
    65
 73
     0
 40
0.0
  0
LTYPE
  5
12
330
5
100
AcDbSymbolTableRecord
100
AcDbLinetypeTableRecord
  2
BYLAYER
 70
     0
  3

 72
    65
 73
     0
 40
0.0
  0
LTYPE
  5
13
330
5
100
AcDbSymbolTableRecord
100
AcDbLinetypeTableRecord
  2
CONTINUOUS
 70
     0
  3
Solid line
 72
    65
 73
     0
 40
0.0
  0
LTYPE
  5
25
330
5
100
AcDbSymbolTableRecord
100
AcDbLinetypeTableRecord
  2
CENTER
 70
     0
  3
____ _ ____ _ ____ _ ____ _ ____ _ ____ _ ____
 72
    65
 73
     4
 40
2.0
 49
1.25
 74
     0
 49
-0.25
 74
     0
 49
0.25
 74
     0
 49
-0.25
 74
     0
  0
LTYPE
  5
27
330
5
100
AcDbSymbolTableRecord
100
AcDbLinetypeTableRecord
  2
PHANTOM
 70
     0
  3
_____ _ _ _____ _ _ _____ _ _ _____ _ _ ____
 72
    65
 73
     6
 40
2.5
 49
1.25
 74
     0
 49
-0.25
 74
     0
 49
0.25
 74
     0
 49
-0.25
 74
     0
 49
0.25
 74
     0
 49
-0.25
 74
     0
  0
ENDTAB
  0
TABLE
  2
LAYER
  5
2
102
{ACAD_XDICTIONARY
360
6DD
102
}
330
0
100
AcDbSymbolTable
 70
     4
  0
LAYER
  5
E
102
{ACAD_XDICTIONARY
360
6EB
102
}
330
2
100
AcDbSymbolTableRecord
100
AcDbLayerTableRecord
  2
0
 70
     0
 62
     7
  6
CONTINUOUS
370
    -3
390
5D8
347
699
  0
LAYER
  5
2A
102
{ACAD_XDICTIONARY
360
6ED
102
}
330
2
100
AcDbSymbolTableRecord
100
AcDbLayerTableRecord
  2
PAPER
 70
     0
 62
     2
  6
CONTINUOUS
370
    -3
390
5D8
347
699
  0
LAYER
  5
2C
330
2
100
AcDbSymbolTableRecord
100
AcDbLayerTableRecord
  2
DEFPOINTS
 70
     0
 62
     7
  6
CONTINUOUS
290
     0
370
    -3
390
5D8
347
699
  0
LAYER
  5
2D
102
{ACAD_XDICTIONARY
360
6EF
102
}
330
2
100
AcDbSymbolTableRecord
100
AcDbLayerTableRecord
  2
HL-TRACK
 70
     0
 62
     2
  6
CONTINUOUS
370
    -3
390
5D8
347
699
  0
ENDTAB
  0
TABLE
  2
STYLE
  5
3
330
0
100
AcDbSymbolTable
 70
     8
  0
STYLE
  5
F
330
3
100
AcDbSymbolTableRecord
100
AcDbTextStyleTableRecord
  2
S
 70
     0
 40
0.0
 41
1.0
 50
0.0
 71
     0
 42
0.07
  3
ROMANS
  4

  0
STYLE
  5
22
330
3
100
AcDbSymbolTableRecord
100
AcDbTextStyleTableRecord
  2
ROMANT
 70
     0
 40
0.0
 41
1.0
 50
0.0
 71
     0
 42
0.06
  3
romant
  4

  0
STYLE
  5
23
330
3
100
AcDbSymbolTableRecord
100
AcDbTextStyleTableRecord
  2
B
 70
     0
 40
0.0
 41
1.0
 50
0.0
 71
     0
 42
0.07
  3
romand
  4

  0
STYLE
  5
24
330
3
100
AcDbSymbolTableRecord
100
AcDbTextStyleTableRecord
  2
STANDARD
 70
     0
 40
0.07
 41
1.0
 50
0.0
 71
     0
 42
0.07
  3
ROMANS
  4

  0
STYLE
  5
5E2
330
3
100
AcDbSymbolTableRecord
100
AcDbTextStyleTableRecord
  2
arial1
 70
     0
 40
0.0
 41
1.0
 50
0.0
 71
     0
 42
0.07
  3
ARIAL.TTF
  4

1001
ACAD
1000
Arial
1071
       34
  0
STYLE
  5
67A
330
3
100
AcDbSymbolTableRecord
100
AcDbTextStyleTableRecord
  2
ARIALB
 70
     0
 40
0.0
 41
1.0
 50
0.0
 71
     0
 42
0.07
  3
ARIBLK.TTF
  4

1001
ACAD
1000
Arial Black
1071
       34
  0
STYLE
  5
684
330
3
100
AcDbSymbolTableRecord
100
AcDbTextStyleTableRecord
  2
ARIAL2
 70
     0
 40
0.0
 41
1.0
 50
0.0
 71
     0
 42
0.07
  3
ARIALBD.TTF
  4

1001
ACAD
1000
Arial
1071
 33554466
  0
ENDTAB
  0
TABLE
  2
VIEW
  5
6
330
0
100
AcDbSymbolTable
 70
     1
  0
ENDTAB
  0
TABLE
  2
UCS
  5
7
330
0
100
AcDbSymbolTable
 70
     0
  0
ENDTAB
  0
TABLE
  2
APPID
  5
9
330
0
100
AcDbSymbolTable
 70
     4
  0
APPID
  5
10
330
9
100
AcDbSymbolTableRecord
100
AcDbRegAppTableRecord
  2
ACAD
 70
     0
  0
APPID
  5
6DB
330
9
100
AcDbSymbolTableRecord
100
AcDbRegAppTableRecord
  2
ACAD_EXEMPT_FROM_CAD_STANDARDS
 70
     0
  0
APPID
  5
6F1
330
9
100
AcDbSymbolTableRecord
100
AcDbRegAppTableRecord
  2
ACAD_PSEXT
 70
     0
  0
APPID
  5
77B
330
9
100
AcDbSymbolTableRecord
100
AcDbRegAppTableRecord
  2
ACAD_MLEADERVER
 70
     0
  0
ENDTAB
  0
TABLE
  2
DIMSTYLE
  5
A
330
0
100
AcDbSymbolTable
 70
     2
100
AcDbDimStyleTable
 71
     1
340
5C8
  0
DIMSTYLE
105
5C8
330
A
100
AcDbSymbolTableRecord
100
AcDbDimStyleTableRecord
  2
STANDARD
 70
     0
340
F
  0
ENDTAB
  0
TABLE
  2
BLOCK_RECORD
  5
1
330
0
100
AcDbSymbolTable
 70
     5
  0
BLOCK_RECORD
  5
17
330
1
100
AcDbSymbolTableRecord
100
AcDbBlockTableRecord
  2
*MODEL_SPACE
340
5DB
 70
     0
280
     1
281
     0
  0
BLOCK_RECORD
  5
14
330
1
100
AcDbSymbolTableRecord
100
AcDbBlockTableRecord
  2
*PAPER_SPACE
340
5DC
 70
     0
280
     1
281
     0
  0
BLOCK_RECORD
  5
1C
330
1
100
AcDbSymbolTableRecord
100
AcDbBlockTableRecord
  2
RECT
340
0
102
{BLKREFS
331
36F
331
370
331
373
331
374
331
395
331
396
331
397
331
398
331
41A
331
41B
331
45B
331
45C
331
45E
331
45F
331
46F
331
471
331
570
331
585
102
}
 70
     0
280
     1
281
     0
  0
BLOCK_RECORD
  5
21
330
1
100
AcDbSymbolTableRecord
100
AcDbBlockTableRecord
  2
12393
340
0
102
{BLKREFS
331
5C7
102
}
 70
     0
280
     1
281
     0
  0
BLOCK_RECORD
  5
5D0
330
1
100
AcDbSymbolTableRecord
100
AcDbBlockTableRecord
  2
A$C0C8E303C
340
0
 70
     0
280
     1
281
     0
  0
ENDTAB
  0
ENDSEC
  0
SECTION
  2
BLOCKS
  0
BLOCK
  5
33
330
17
100
AcDbEntity
  8
0
100
AcDbBlockBegin
  2
*MODEL_SPACE
 70
     0
 10
0.0
 20
0.0
 30
0.0
  3
*MODEL_SPACE
  1

  0
ENDBLK
  5
34
330
17
100
AcDbEntity
  8
0
100
AcDbBlockEnd
  0
BLOCK
  5
31
330
14
100
AcDbEntity
 67
     1
  8
0
100
AcDbBlockBegin
  2
*PAPER_SPACE
 70
     0
 10
0.0
 20
0.0
 30
0.0
  3
*PAPER_SPACE
  1

  0
ENDBLK
  5
32
330
14
100
AcDbEntity
 67
     1
  8
0
100
AcDbBlockEnd
  0
BLOCK
  5
37
330
1C
100
AcDbEntity
  8
0
100
AcDbBlockBegin
  2
RECT
 70
     0
 10
0.0
 20
0.0
 30
0.0
  3
RECT
  1

  0
LWPOLYLINE
  5
38
330
1C
100
AcDbEntity
  8
0
100
AcDbPolyline
 90
        4
 70
     1
 43
0.0
 10
0.0
 20
0.0
 10
1.0
 20
0.0
 10
1.0
 20
1.0
 10
0.0
 20
1.0
  0
ENDBLK
  5
3E
330
1C
100
AcDbEntity
  8
0
100
AcDbBlockEnd
  0
BLOCK
  5
1E3
330
21
100
AcDbEntity
  8
0
100
AcDbBlockBegin
  2
12393
 70
     0
 10
0.0
 20
0.0
 30
0.0
  3
12393
  1

  0
LWPOLYLINE
  5
1E4
330
21
100
AcDbEntity
  8
PAPER
100
AcDbPolyline
 90
        6
 70
     1
 43
0.0
 10
0.4306642771816369
 20
0.4928167194996974
 10
0.1694889343491986
 20
0.4928167194996974
 10
0.1694889343491986
 20
0.406996324339807
 42
0.4142135623730912
 10
0.239367970629761
 20
0.3371172880592399
 10
0.5005433134622073
 20
0.3371172880592399
 10
0.5005433134622073
 20
0.4229376832191305
 42
0.4142135623730912
  0
TEXT
  5
1EC
330
21
100
AcDbEntity
  8
PAPER
100
AcDbText
 10
0.1968389652516827
 20
0.0653685483710036
 30
0.0
 40
0.08
  1
COMPANY
  7
B
100
AcDbText
  0
TEXT
  5
1ED
330
21
100
AcDbEntity
  8
PAPER
100
AcDbText
 10
0.1994274219848929
 20
0.1867646562232728
 30
0.0
 40
0.08
  1
BUILDING PRODUCTS
  7
B
100
AcDbText
  0
LWPOLYLINE
  5
1EE
330
21
100
AcDbEntity
  8
PAPER
100
AcDbPolyline
 90
       18
 70
     1
 43
0.0
 10
0.6765762518365296
 20
0.604111179110729
 10
0.6765762518365296
 20
0.5323750641537762
 10
0.7403416873538186
 20
0.5323750641537762
 10
0.7403416873538186
 20
0.6120818585503898
 42
0.4142135623730951
 10
0.7004882901555131
 20
0.6519352557486967
 10
0.6207814957588976
 20
0.651935255748697
 42
0.4142135623730951
 10
0.5809280985605884
 20
0.6120818585503898
 10
0.5809280985605884
 20
0.4128148725588553
 42
0.4142135623730953
 10
0.6207814957588976
 20
0.3729614753605477
 10
0.7004882901555131
 20
0.3729614753605477
 42
0.4142135623730951
 10
0.7403416873538186
 20
0.4128148725588553
 10
0.7403416873538186
 20
0.4925216669554695
 10
0.6765762518365296
 20
0.4925216669554695
 10
0.6765762518365296
 20
0.4207855519985151
 42
-0.4142135623730969
 10
0.6606348929572074
 20
0.4048441931191929
 42
-0.4142135623730943
 10
0.6446935340778858
 20
0.4207855519985151
 10
0.6446935340778773
 20
0.604111179110729
 42
-0.4142135623730951
 10
0.6606348929572074
 20
0.6200525379900517
 42
-0.4142135623730969
  0
LINE
  5
202
330
21
100
AcDbEntity
  8
PAPER
100
AcDbLine
 10
0.179962485820331
 20
0.5476544388800927
 30
0.0
 11
0.4540157620275672
 21
0.5476544388800927
 31
0.0
  0
LINE
  5
203
330
21
100
AcDbEntity
  8
PAPER
100
AcDbLine
 10
0.179962485820331
 20
0.5534249114501176
 30
0.0
 11
0.4644636791176112
 21
0.5534249114501176
 31
0.0
  0
LINE
  5
204
330
21
100
AcDbEntity
  8
PAPER
100
AcDbLine
 10
0.2082694119570478
 20
0.6688343628506253
 30
0.0
 11
0.4900697619910666
 21
0.6688343628506253
 31
0.0
  0
LINE
  5
205
330
21
100
AcDbEntity
  8
PAPER
100
AcDbLine
 10
0.2004068563776899
 20
0.6630638902805995
 30
0.0
 11
0.4900697619910666
 21
0.6630638902805995
 31
0.0
  0
LINE
  5
206
330
21
100
AcDbEntity
  8
PAPER
100
AcDbLine
 10
0.1946217999705963
 20
0.6572934177105746
 30
0.0
 11
0.4900697619910666
 21
0.6572934177105746
 31
0.0
  0
LINE
  5
207
330
21
100
AcDbEntity
  8
PAPER
100
AcDbLine
 10
0.1901757512634294
 20
0.6515229451405487
 30
0.0
 11
0.4900697619910679
 21
0.6515229451405487
 31
0.0
  0
LINE
  5
208
330
21
100
AcDbEntity
  8
PAPER
100
AcDbLine
 10
0.1867283240091624
 20
0.6457524725705238
 30
0.0
 11
0.4900697619910666
 21
0.6457524725705238
 31
0.0
  0
LINE
  5
209
330
21
100
AcDbEntity
  8
PAPER
100
AcDbLine
 10
0.1840923553989955
 20
0.639982000000498
 30
0.0
 11
0.4900697619910679
 21
0.639982000000498
 31
0.0
  0
LINE
  5
20A
330
21
100
AcDbEntity
  8
PAPER
100
AcDbLine
 10
0.1821555753418569
 20
0.634211527430473
 30
0.0
 11
0.4900697619910679
 21
0.634211527430473
 31
0.0
  0
LINE
  5
20B
330
21
100
AcDbEntity
  8
PAPER
100
AcDbLine
 10
0.1808485208488484
 20
0.6284410548604472
 30
0.0
 11
0.4900697619910666
 21
0.6284410548604481
 31
0.0
  0
LINE
  5
20C
330
21
100
AcDbEntity
  8
PAPER
100
AcDbLine
 10
0.1801294939159545
 20
0.6226705822904222
 30
0.0
 11
0.4900697619910666
 21
0.6226705822904222
 31
0.0
  0
LINE
  5
20D
330
21
100
AcDbEntity
  8
PAPER
100
AcDbLine
 10
0.179962485820331
 20
0.6169001097203973
 30
0.0
 11
0.4900697619910666
 21
0.6169001097203973
 31
0.0
  0
LINE
  5
20E
330
21
100
AcDbEntity
  8
PAPER
100
AcDbLine
 10
0.179962485820331
 20
0.6111296371503715
 30
0.0
 11
0.4900697619910666
 21
0.6111296371503715
 31
0.0
  0
LINE
  5
20F
330
21
100
AcDbEntity
  8
PAPER
100
AcDbLine
 10
0.179962485820331
 20
0.6053591645803456
 30
0.0
 11
0.4900697619910666
 21
0.6053591645803465
 31
0.0
  0
LINE
  5
210
330
21
100
AcDbEntity
  8
PAPER
100
AcDbLine
 10
0.179962485820331
 20
0.5995886920103207
 30
0.0
 11
0.4900088634547457
 21
0.5995886920103207
 31
0.0
  0
LINE
  5
211
330
21
100
AcDbEntity
  8
PAPER
100
AcDbLine
 10
0.179962485820331
 20
0.5938182194402958
 30
0.0
 11
0.489464326944437
 21
0.5938182194402958
 31
0.0
  0
LINE
  5
212
330
21
100
AcDbEntity
  8
PAPER
100
AcDbLine
 10
0.179962485820331
 20
0.5880477468702699
 30
0.0
 11
0.4883402260418935
 21
0.5880477468702699
 31
0.0
  0
LINE
  5
213
330
21
100
AcDbEntity
  8
PAPER
100
AcDbLine
 10
0.179962485820331
 20
0.582277274300245
 30
0.0
 11
0.4866016313770596
 21
0.582277274300245
 31
0.0
  0
LINE
  5
214
330
21
100
AcDbEntity
  8
PAPER
100
AcDbLine
 10
0.179962485820331
 20
0.5765068017302191
 30
0.0
 11
0.4841886959498878
 21
0.57650680173022
 31
0.0
  0
LINE
  5
215
330
21
100
AcDbEntity
  8
PAPER
100
AcDbLine
 10
0.179962485820331
 20
0.5707363291601942
 30
0.0
 11
0.4810045444357528
 21
0.5707363291601942
 31
0.0
  0
LINE
  5
216
330
21
100
AcDbEntity
  8
PAPER
100
AcDbLine
 10
0.179962485820331
 20
0.5649658565901684
 30
0.0
 11
0.476890080609836
 21
0.5649658565901684
 31
0.0
  0
LINE
  5
217
330
21
100
AcDbEntity
  8
PAPER
100
AcDbLine
 10
0.179962485820331
 20
0.5591953840201434
 30
0.0
 11
0.4715655068768332
 21
0.5591953840201434
 31
0.0
  0
LINE
  5
218
330
21
100
AcDbEntity
  8
PAPER
100
AcDbLine
 10
0.1799624858203297
 20
0.4797017933670292
 30
0.0
 11
0.4481813381384436
 21
0.4797017933670292
 31
0.0
  0
LINE
  5
219
330
21
100
AcDbEntity
  8
PAPER
100
AcDbLine
 10
0.1799624858203297
 20
0.4739313207970051
 30
0.0
 11
0.4611382095177341
 21
0.4739313207970043
 31
0.0
  0
LINE
  5
21A
330
21
100
AcDbEntity
  8
PAPER
100
AcDbLine
 10
0.1799624858203297
 20
0.4681608482269793
 30
0.0
 11
0.4691854008946813
 21
0.4681608482269793
 31
0.0
  0
LINE
  5
21B
330
21
100
AcDbEntity
  8
PAPER
100
AcDbLine
 10
0.1799624858203297
 20
0.4623903756569535
 30
0.0
 11
0.4750770758420224
 21
0.4623903756569535
 31
0.0
  0
LINE
  5
21C
330
21
100
AcDbEntity
  8
PAPER
100
AcDbLine
 10
0.1799624858203297
 20
0.4566199030869285
 30
0.0
 11
0.479598106893014
 21
0.4566199030869285
 31
0.0
  0
LINE
  5
21D
330
21
100
AcDbEntity
  8
PAPER
100
AcDbLine
 10
0.1799624858203297
 20
0.4508494305169027
 30
0.0
 11
0.4831042046055581
 21
0.4508494305169027
 31
0.0
  0
LINE
  5
21E
330
21
100
AcDbEntity
  8
PAPER
100
AcDbLine
 10
0.1799624858203297
 20
0.4450789579468778
 30
0.0
 11
0.485789367466116
 21
0.4450789579468778
 31
0.0
  0
LINE
  5
21F
330
21
100
AcDbEntity
  8
PAPER
100
AcDbLine
 10
0.1799624858203297
 20
0.4393084853768519
 30
0.0
 11
0.4877695174154331
 21
0.4393084853768519
 31
0.0
  0
LINE
  5
220
330
21
100
AcDbEntity
  8
PAPER
100
AcDbLine
 10
0.1799624858203297
 20
0.433538012806827
 30
0.0
 11
0.4891163484715177
 21
0.433538012806827
 31
0.0
  0
LINE
  5
221
330
21
100
AcDbEntity
  8
PAPER
100
AcDbLine
 10
0.1799624858203297
 20
0.4277675402368021
 30
0.0
 11
0.4898730949931477
 21
0.4277675402368021
 31
0.0
  0
LINE
  5
222
330
21
100
AcDbEntity
  8
PAPER
100
AcDbLine
 10
0.1799624858203297
 20
0.4219970676667762
 30
0.0
 11
0.4900697619910666
 21
0.4219970676667762
 31
0.0
  0
LINE
  5
223
330
21
100
AcDbEntity
  8
PAPER
100
AcDbLine
 10
0.1799624858203297
 20
0.4162265950967513
 30
0.0
 11
0.4900697619910666
 21
0.4162265950967513
 31
0.0
  0
LINE
  5
224
330
21
100
AcDbEntity
  8
PAPER
100
AcDbLine
 10
0.1799624858203297
 20
0.4104561225267254
 30
0.0
 11
0.4900697619910666
 21
0.4104561225267254
 31
0.0
  0
LINE
  5
225
330
21
100
AcDbEntity
  8
PAPER
100
AcDbLine
 10
0.1800074415777251
 20
0.4046856499567005
 30
0.0
 11
0.4900697619910661
 21
0.4046856499567005
 31
0.0
  0
LINE
  5
226
330
21
100
AcDbEntity
  8
PAPER
100
AcDbLine
 10
0.1805147065795245
 20
0.3989151773866746
 30
0.0
 11
0.4900697619910661
 21
0.3989151773866746
 31
0.0
  0
LINE
  5
227
330
21
100
AcDbEntity
  8
PAPER
100
AcDbLine
 10
0.1815999495278901
 20
0.3931447048166496
 30
0.0
 11
0.4900697619910666
 21
0.3931447048166496
 31
0.0
  0
LINE
  5
228
330
21
100
AcDbEntity
  8
PAPER
100
AcDbLine
 10
0.1832967201770794
 20
0.3873742322466238
 30
0.0
 11
0.4900697619910666
 21
0.3873742322466238
 31
0.0
  0
LINE
  5
229
330
21
100
AcDbEntity
  8
PAPER
100
AcDbLine
 10
0.1856629495863802
 20
0.3816037596765989
 30
0.0
 11
0.4900697619910666
 21
0.3816037596765989
 31
0.0
  0
LINE
  5
22A
330
21
100
AcDbEntity
  8
PAPER
100
AcDbLine
 10
0.1887925147658442
 20
0.375833287106573
 30
0.0
 11
0.4900697619910679
 21
0.375833287106573
 31
0.0
  0
LINE
  5
22B
330
21
100
AcDbEntity
  8
PAPER
100
AcDbLine
 10
0.1928391894394334
 20
0.3700628145365481
 30
0.0
 11
0.4900697619910666
 21
0.3700628145365481
 31
0.0
  0
LINE
  5
22C
330
21
100
AcDbEntity
  8
PAPER
100
AcDbLine
 10
0.1980717054850516
 20
0.3642923419665223
 30
0.0
 11
0.4900697619910661
 21
0.3642923419665223
 31
0.0
  0
LINE
  5
22D
330
21
100
AcDbEntity
  8
PAPER
100
AcDbLine
 10
0.2050279234051501
 20
0.3585218693964973
 30
0.0
 11
0.4900697619910661
 21
0.3585218693964973
 31
0.0
  0
LWPOLYLINE
  5
22E
330
21
100
AcDbEntity
  8
PAPER
100
AcDbPolyline
 90
        6
 70
     1
 43
0.0
 10
0.5005433134622073
 20
0.602277875067701
 42
-0.4142135623730912
 10
0.4306642771816369
 20
0.5323988387871342
 10
0.1694889343491986
 20
0.5323988387871348
 10
0.1694889343491986
 20
0.6182192339470243
 42
-0.4142135623730912
 10
0.239367970629761
 20
0.6880982702275914
 10
0.5005433134622073
 20
0.6880982702275917
  0
LWPOLYLINE
  5
236
330
21
100
AcDbEntity
  8
PAPER
100
AcDbPolyline
 90
        6
 70
     1
 43
0.0
 10
0.4306642771816369
 20
0.4823431680285597
 10
0.1799624858203308
 20
0.4823431680285597
 10
0.1799624858203308
 20
0.406996324339807
 42
0.4142135623730903
 10
0.239367970629761
 20
0.3475908395303771
 10
0.4900697619910668
 20
0.3475908395303771
 10
0.4900697619910668
 20
0.4229376832191305
 42
0.4142135623730933
  0
LWPOLYLINE
  5
23E
330
21
100
AcDbEntity
  8
PAPER
100
AcDbPolyline
 90
        6
 70
     1
 43
0.0
 10
0.4900697619910668
 20
0.602277875067701
 42
-0.4142135623730941
 10
0.4306642771816369
 20
0.5428723902582718
 10
0.1799624858203308
 20
0.5428723902582722
 10
0.1799624858203308
 20
0.6182192339470243
 42
-0.4142135623730911
 10
0.239367970629761
 20
0.6776247187564537
 10
0.4900697619910668
 20
0.677624718756454
  0
LINE
  5
246
330
21
100
AcDbEntity
  8
PAPER
100
AcDbLine
 10
0.2206683564119276
 20
0.6746048354206503
 30
0.0
 11
0.4900697619910666
 21
0.6746048354206503
 31
0.0
  0
LINE
  5
247
330
21
100
AcDbEntity
  8
PAPER
100
AcDbLine
 10
0.2151502196087309
 20
0.3527513968264715
 30
0.0
 11
0.4900697619910666
 21
0.3527513968264715
 31
0.0
  0
LINE
  5
248
330
21
100
AcDbEntity
  8
PAPER
100
AcDbLine
 10
0.6993060123198396
 20
0.5323750641537764
 30
0.0
 11
0.6993060123198396
 21
0.6519352557486967
 31
0.0
  0
LINE
  5
249
330
21
100
AcDbEntity
  8
PAPER
100
AcDbLine
 10
0.6819945946097639
 20
0.5323750641537764
 30
0.0
 11
0.6819945946097639
 21
0.6519352557486967
 31
0.0
  0
LINE
  5
24A
330
21
100
AcDbEntity
  8
PAPER
100
AcDbLine
 10
0.6935355397498143
 20
0.5323750641537764
 30
0.0
 11
0.6935355397498143
 21
0.6519352557486967
 31
0.0
  0
LINE
  5
24B
330
21
100
AcDbEntity
  8
PAPER
100
AcDbLine
 10
0.687765067179787
 20
0.5323750641537764
 30
0.0
 11
0.6877650671797884
 21
0.6519352557486967
 31
0.0
  0
LINE
  5
24C
330
21
100
AcDbEntity
  8
PAPER
100
AcDbLine
 10
0.6762241220397389
 20
0.6074432744763766
 30
0.0
 11
0.6762241220397389
 21
0.6519352557486967
 31
0.0
  0
LINE
  5
24D
330
21
100
AcDbEntity
  8
PAPER
100
AcDbLine
 10
0.6704536494697131
 20
0.6166697993956756
 30
0.0
 11
0.6704536494697131
 21
0.6519352557486967
 31
0.0
  0
LINE
  5
24E
330
21
100
AcDbEntity
  8
PAPER
100
AcDbLine
 10
0.6646831768996873
 20
0.6195299443023499
 30
0.0
 11
0.6646831768996873
 21
0.6519352557486967
 31
0.0
  0
LINE
  5
24F
330
21
100
AcDbEntity
  8
PAPER
100
AcDbLine
 10
0.6473717591896115
 20
0.6129551717373801
 30
0.0
 11
0.6473717591896115
 21
0.6519352557486967
 31
0.0
  0
LINE
  5
250
330
21
100
AcDbEntity
  8
PAPER
100
AcDbLine
 10
0.6531422317596383
 20
0.6181819627099408
 30
0.0
 11
0.6531422317596379
 21
0.6519352557486967
 31
0.0
  0
LINE
  5
251
330
21
100
AcDbEntity
  8
PAPER
100
AcDbLine
 10
0.6589127043296611
 20
0.6199592385896827
 30
0.0
 11
0.6589127043296611
 21
0.6519352557486967
 31
0.0
  0
LINE
  5
252
330
21
100
AcDbEntity
  8
PAPER
100
AcDbLine
 10
0.6993060123198396
 20
0.3729614753605472
 30
0.0
 11
0.6993060123198396
 21
0.4925216669554694
 31
0.0
  0
LINE
  5
253
330
21
100
AcDbEntity
  8
PAPER
100
AcDbLine
 10
0.6935355397498155
 20
0.3729614753605472
 30
0.0
 11
0.6935355397498143
 21
0.4925216669554694
 31
0.0
  0
LINE
  5
254
330
21
100
AcDbEntity
  8
PAPER
100
AcDbLine
 10
0.687765067179787
 20
0.3729614753605472
 30
0.0
 11
0.687765067179787
 21
0.4925216669554694
 31
0.0
  0
LINE
  5
255
330
21
100
AcDbEntity
  8
PAPER
100
AcDbLine
 10
0.6819945946097639
 20
0.3729614753605472
 30
0.0
 11
0.6819945946097639
 21
0.4925216669554694
 31
0.0
  0
LINE
  5
256
330
21
100
AcDbEntity
  8
PAPER
100
AcDbLine
 10
0.6762241220397398
 20
0.3729614753605472
 30
0.0
 11
0.6762241220397398
 21
0.4174534566320139
 31
0.0
  0
LINE
  5
257
330
21
100
AcDbEntity
  8
PAPER
100
AcDbLine
 10
0.6704536494697131
 20
0.3729614753605472
 30
0.0
 11
0.6704536494697131
 21
0.4082269317133357
 31
0.0
  0
LINE
  5
258
330
21
100
AcDbEntity
  8
PAPER
100
AcDbLine
 10
0.6646831768996873
 20
0.3729614753605472
 30
0.0
 11
0.6646831768996873
 21
0.4053667868067049
 31
0.0
  0
LINE
  5
259
330
21
100
AcDbEntity
  8
PAPER
100
AcDbLine
 10
0.658912704329662
 20
0.3729614753605472
 30
0.0
 11
0.658912704329662
 21
0.4049374925195134
 31
0.0
  0
LINE
  5
25A
330
21
100
AcDbEntity
  8
PAPER
100
AcDbLine
 10
0.6531422317596379
 20
0.3729614753605472
 30
0.0
 11
0.6531422317596383
 21
0.4067147683992561
 31
0.0
  0
LINE
  5
25B
330
21
100
AcDbEntity
  8
PAPER
100
AcDbLine
 10
0.6473717591896115
 20
0.3729614753605472
 30
0.0
 11
0.6473717591896115
 21
0.4119415593717804
 31
0.0
  0
LINE
  5
25C
330
21
100
AcDbEntity
  8
PAPER
100
AcDbLine
 10
0.6416012866195871
 20
0.3729614753605472
 30
0.0
 11
0.6416012866195857
 21
0.6519352557486967
 31
0.0
  0
LINE
  5
25D
330
21
100
AcDbEntity
  8
PAPER
100
AcDbLine
 10
0.6358308140495599
 20
0.3729614753605472
 30
0.0
 11
0.6358308140495604
 21
0.6519352557486967
 31
0.0
  0
LINE
  5
25E
330
21
100
AcDbEntity
  8
PAPER
100
AcDbLine
 10
0.6300603414795355
 20
0.3729614753605472
 30
0.0
 11
0.6300603414795355
 21
0.6519352557486967
 31
0.0
  0
LINE
  5
25F
330
21
100
AcDbEntity
  8
PAPER
100
AcDbLine
 10
0.6242898689095091
 20
0.3729614753605472
 30
0.0
 11
0.6242898689095091
 21
0.6519352557486967
 31
0.0
  0
LINE
  5
260
330
21
100
AcDbEntity
  8
PAPER
100
AcDbLine
 10
0.6185193963394847
 20
0.3730257261183592
 30
0.0
 11
0.6185193963394847
 21
0.6518710049910207
 31
0.0
  0
LINE
  5
261
330
21
100
AcDbEntity
  8
PAPER
100
AcDbLine
 10
0.6127489237694597
 20
0.3737793623728576
 30
0.0
 11
0.6127489237694597
 21
0.6511173687364645
 31
0.0
  0
LINE
  5
262
330
21
100
AcDbEntity
  8
PAPER
100
AcDbLine
 10
0.6069784511994339
 20
0.3754281205050043
 30
0.0
 11
0.6069784511994339
 21
0.6494686106042734
 31
0.0
  0
LINE
  5
263
330
21
100
AcDbEntity
  8
PAPER
100
AcDbLine
 10
0.6012079786294072
 20
0.3780993040710958
 30
0.0
 11
0.6012079786294081
 21
0.6467974270381588
 31
0.0
  0
LINE
  5
264
330
21
100
AcDbEntity
  8
PAPER
100
AcDbLine
 10
0.5954375060593826
 20
0.3820581585868197
 30
0.0
 11
0.5954375060593826
 21
0.6428385725224802
 31
0.0
  0
LINE
  5
265
330
21
100
AcDbEntity
  8
PAPER
100
AcDbLine
 10
0.5896670334893591
 20
0.3879113887478656
 30
0.0
 11
0.5896670334893591
 21
0.6369853423614174
 31
0.0
  0
LINE
  5
266
330
21
100
AcDbEntity
  8
PAPER
100
AcDbLine
 10
0.5838965609193315
 20
0.3977219984081894
 30
0.0
 11
0.5838965609193327
 21
0.6271747327012845
 31
0.0
  0
LWPOLYLINE
  5
267
330
21
100
AcDbEntity
  8
PAPER
100
AcDbPolyline
 90
        5
 70
     0
 43
0.0
 10
0.9134655158037315
 20
0.5048096616906559
 42
-1.00459822107278
 10
0.9453475625419073
 20
0.5049559268813409
 10
0.9453475625419073
 20
0.4207855519985151
 42
-0.9999999999999996
 10
0.9134648447832638
 20
0.4207855519985151
 10
0.9134648447832638
 20
0.5049559268813409
  0
LWPOLYLINE
  5
26E
330
21
100
AcDbEntity
  8
PAPER
100
AcDbPolyline
 90
        8
 70
     1
 43
0.0
 10
1.009112998059204
 20
0.5129266063210024
 10
1.009112998059204
 20
0.4128148725588541
 42
-0.4142135623730951
 10
0.9692596008608955
 20
0.3729614753605477
 10
0.8895528064642801
 20
0.3729614753605477
 42
-0.4142135623730951
 10
0.8496994092659749
 20
0.4128148725588544
 10
0.8496994092659699
 20
0.5129266063210024
 42
-0.4142135623730951
 10
0.8895528064642801
 20
0.5527800035193087
 10
0.9692596008608955
 20
0.5527800035193087
 42
-0.4142135623730951
  0
LINE
  5
278
330
21
100
AcDbEntity
  8
PAPER
100
AcDbLine
 10
0.7396993203100186
 20
0.5323750641537764
 30
0.0
 11
0.7396993203100183
 21
0.6192084553866451
 31
0.0
  0
LINE
  5
279
330
21
100
AcDbEntity
  8
PAPER
100
AcDbLine
 10
0.7339288477399933
 20
0.5323750641537764
 30
0.0
 11
0.7339288477399919
 21
0.6337618580126446
 31
0.0
  0
LINE
  5
27A
330
21
100
AcDbEntity
  8
PAPER
100
AcDbLine
 10
0.7281583751699661
 20
0.5323750641537764
 30
0.0
 11
0.7281583751699661
 21
0.6407639028210291
 31
0.0
  0
LINE
  5
27B
330
21
100
AcDbEntity
  8
PAPER
100
AcDbLine
 10
0.7108469574598882
 20
0.5323750641537764
 30
0.0
 11
0.7108469574598909
 21
0.6505655080645008
 31
0.0
  0
LINE
  5
27C
330
21
100
AcDbEntity
  8
PAPER
100
AcDbLine
 10
0.7223879025999402
 20
0.5323750641537764
 30
0.0
 11
0.7223879025999408
 21
0.6453790092247925
 31
0.0
  0
LINE
  5
27D
330
21
100
AcDbEntity
  8
PAPER
100
AcDbLine
 10
0.7166174300299153
 20
0.5323750641537764
 30
0.0
 11
0.7166174300299153
 21
0.6485255701500135
 31
0.0
  0
LINE
  5
27E
330
21
100
AcDbEntity
  8
PAPER
100
AcDbLine
 10
0.7050764848898645
 20
0.5323750641537764
 30
0.0
 11
0.7050764848898645
 21
0.6516702626268386
 31
0.0
  0
LINE
  5
27F
330
21
100
AcDbEntity
  8
PAPER
100
AcDbLine
 10
0.8147154637203451
 20
0.3729614753605481
 30
0.0
 11
0.814715463720346
 21
0.6522540829262836
 31
0.0
  0
LINE
  5
280
330
21
100
AcDbEntity
  8
PAPER
100
AcDbLine
 10
0.8089449911503201
 20
0.3729614753605481
 30
0.0
 11
0.8089449911503201
 21
0.6522540829262836
 31
0.0
  0
LINE
  5
281
330
21
100
AcDbEntity
  8
PAPER
100
AcDbLine
 10
0.803174518580297
 20
0.3729614753605481
 30
0.0
 11
0.803174518580297
 21
0.6522540829262836
 31
0.0
  0
LINE
  5
282
330
21
100
AcDbEntity
  8
PAPER
100
AcDbLine
 10
0.7974040460102698
 20
0.3729614753605481
 30
0.0
 11
0.7974040460102712
 21
0.6522540829262836
 31
0.0
  0
LINE
  5
283
330
21
100
AcDbEntity
  8
PAPER
100
AcDbLine
 10
0.7916335734402445
 20
0.3729614753605481
 30
0.0
 11
0.7916335734402454
 21
0.6522540829262836
 31
0.0
  0
LINE
  5
284
330
21
100
AcDbEntity
  8
PAPER
100
AcDbLine
 10
0.7858631008702199
 20
0.3729614753605481
 30
0.0
 11
0.7858631008702199
 21
0.6522540829262836
 31
0.0
  0
LINE
  5
285
330
21
100
AcDbEntity
  8
PAPER
100
AcDbLine
 10
0.7800926283001946
 20
0.3729614753605481
 30
0.0
 11
0.7800926283001946
 21
0.6522540829262836
 31
0.0
  0
LINE
  5
286
330
21
100
AcDbEntity
  8
PAPER
100
AcDbLine
 10
0.774322155730167
 20
0.3729614753605481
 30
0.0
 11
0.7743221557301683
 21
0.6522540829262836
 31
0.0
  0
LINE
  5
287
330
21
100
AcDbEntity
  8
PAPER
100
AcDbLine
 10
0.7396993203100183
 20
0.4056882757221059
 30
0.0
 11
0.7396993203100186
 21
0.4925216669554694
 31
0.0
  0
LINE
  5
288
330
21
100
AcDbEntity
  8
PAPER
100
AcDbLine
 10
0.7339288477399919
 20
0.3911348730964466
 30
0.0
 11
0.7339288477399933
 21
0.4925216669554694
 31
0.0
  0
LINE
  5
289
330
21
100
AcDbEntity
  8
PAPER
100
AcDbLine
 10
0.7281583751699675
 20
0.3841328282881988
 30
0.0
 11
0.7281583751699675
 21
0.4925216669554694
 31
0.0
  0
LINE
  5
28A
330
21
100
AcDbEntity
  8
PAPER
100
AcDbLine
 10
0.7223879025999408
 20
0.3795177218844346
 30
0.0
 11
0.7223879025999402
 21
0.4925216669554694
 31
0.0
  0
LINE
  5
28B
330
21
100
AcDbEntity
  8
PAPER
100
AcDbLine
 10
0.7166174300299153
 20
0.3763711609591451
 30
0.0
 11
0.7166174300299153
 21
0.4925216669554694
 31
0.0
  0
LINE
  5
28C
330
21
100
AcDbEntity
  8
PAPER
100
AcDbLine
 10
0.7108469574598895
 20
0.3743312230446996
 30
0.0
 11
0.7108469574598882
 21
0.4925216669554694
 31
0.0
  0
LINE
  5
28D
330
21
100
AcDbEntity
  8
PAPER
100
AcDbLine
 10
0.7050764848898645
 20
0.3732264684822713
 30
0.0
 11
0.7050764848898645
 21
0.4925216669554694
 31
0.0
  0
LWPOLYLINE
  5
28E
330
21
100
AcDbEntity
  8
PAPER
100
AcDbPolyline
 90
        4
 70
     1
 43
0.0
 10
0.7703114420469431
 20
0.6522540829262833
 10
0.820048481750431
 20
0.6522540829262833
 10
0.820048481750431
 20
0.3729614753605477
 10
0.7703114420469431
 20
0.3729614753605477
  0
LINE
  5
294
330
21
100
AcDbEntity
  8
PAPER
100
AcDbLine
 10
0.9416658602609027
 20
0.5151455168146607
 30
0.0
 11
0.9416658602609027
 21
0.5527800035193094
 31
0.0
  0
LINE
  5
295
330
21
100
AcDbEntity
  8
PAPER
100
AcDbLine
 10
0.9358953876908786
 20
0.5195167446319065
 30
0.0
 11
0.9358953876908781
 21
0.5527800035193094
 31
0.0
  0
LINE
  5
296
330
21
100
AcDbEntity
  8
PAPER
100
AcDbLine
 10
0.9185839699808029
 20
0.5166608908306677
 30
0.0
 11
0.9185839699808029
 21
0.5527800035193094
 31
0.0
  0
LINE
  5
297
330
21
100
AcDbEntity
  8
PAPER
100
AcDbLine
 10
0.9243544425508279
 20
0.5200756700202874
 30
0.0
 11
0.9243544425508279
 21
0.5527800035193094
 31
0.0
  0
LINE
  5
298
330
21
100
AcDbEntity
  8
PAPER
100
AcDbLine
 10
0.9301249151208546
 20
0.5208810760724088
 30
0.0
 11
0.9301249151208532
 21
0.5527800035193094
 31
0.0
  0
LINE
  5
299
330
21
100
AcDbEntity
  8
PAPER
100
AcDbLine
 10
0.9416658602609027
 20
0.3729614753605472
 30
0.0
 11
0.9416658602609027
 21
0.4105959620656775
 31
0.0
  0
LINE
  5
29A
330
21
100
AcDbEntity
  8
PAPER
100
AcDbLine
 10
0.9358953876908786
 20
0.3729614753605472
 30
0.0
 11
0.9358953876908786
 21
0.4062247342482993
 31
0.0
  0
LINE
  5
29B
330
21
100
AcDbEntity
  8
PAPER
100
AcDbLine
 10
0.9301249151208532
 20
0.3729614753605472
 30
0.0
 11
0.9301249151208546
 21
0.4048604028077668
 31
0.0
  0
LINE
  5
29C
330
21
100
AcDbEntity
  8
PAPER
100
AcDbLine
 10
0.9243544425508279
 20
0.3729614753605472
 30
0.0
 11
0.9243544425508279
 21
0.4056658088599051
 31
0.0
  0
LINE
  5
29D
330
21
100
AcDbEntity
  8
PAPER
100
AcDbLine
 10
0.9185839699808029
 20
0.3729614753605472
 30
0.0
 11
0.9185839699808029
 21
0.4090805880496243
 31
0.0
  0
LINE
  5
29E
330
21
100
AcDbEntity
  8
PAPER
100
AcDbLine
 10
0.9128134974107775
 20
0.3729614753605472
 30
0.0
 11
0.9128134974107771
 21
0.5527800035193094
 31
0.0
  0
LINE
  5
29F
330
21
100
AcDbEntity
  8
PAPER
100
AcDbLine
 10
0.9070430248407534
 20
0.3729614753605472
 30
0.0
 11
0.9070430248407522
 21
0.5527800035193094
 31
0.0
  0
LINE
  5
2A0
330
21
100
AcDbEntity
  8
PAPER
100
AcDbLine
 10
0.9012725522707249
 20
0.3729614753605472
 30
0.0
 11
0.9012725522707249
 21
0.5527800035193094
 31
0.0
  0
LINE
  5
2A1
330
21
100
AcDbEntity
  8
PAPER
100
AcDbLine
 10
0.8955020797007009
 20
0.3729614753605472
 30
0.0
 11
0.8955020797007009
 21
0.5527800035193094
 31
0.0
  0
LINE
  5
2A2
330
21
100
AcDbEntity
  8
PAPER
100
AcDbLine
 10
0.8897316071306756
 20
0.3729614753605472
 30
0.0
 11
0.8897316071306756
 21
0.5527800035193094
 31
0.0
  0
LINE
  5
2A3
330
21
100
AcDbEntity
  8
PAPER
100
AcDbLine
 10
0.883961134560651
 20
0.373355697788363
 30
0.0
 11
0.883961134560651
 21
0.5523857810915257
 31
0.0
  0
LINE
  5
2A4
330
21
100
AcDbEntity
  8
PAPER
100
AcDbLine
 10
0.8781906619906251
 20
0.3746154623381999
 30
0.0
 11
0.8781906619906251
 21
0.5511260165416044
 31
0.0
  0
LINE
  5
2A5
330
21
100
AcDbEntity
  8
PAPER
100
AcDbLine
 10
0.8724201894205998
 20
0.3768320057820051
 30
0.0
 11
0.8724201894205998
 21
0.548909473097887
 31
0.0
  0
LINE
  5
2A6
330
21
100
AcDbEntity
  8
PAPER
100
AcDbLine
 10
0.8666497168505731
 20
0.3801998184520083
 30
0.0
 11
0.8666497168505731
 21
0.5455416604278936
 31
0.0
  0
LINE
  5
2A7
330
21
100
AcDbEntity
  8
PAPER
100
AcDbLine
 10
0.8608792442805494
 20
0.3851359979440543
 30
0.0
 11
0.8608792442805494
 21
0.5406054809358628
 31
0.0
  0
LINE
  5
2A8
330
21
100
AcDbEntity
  8
PAPER
100
AcDbLine
 10
0.855108771710525
 20
0.3927673854812139
 30
0.0
 11
0.8551087717105241
 21
0.5329740933985264
 31
0.0
  0
LINE
  5
2A9
330
21
100
AcDbEntity
  8
PAPER
100
AcDbLine
 10
1.085927674511538
 20
0.3133407931518792
 30
0.0
 11
1.085927674511537
 21
0.5527800035193094
 31
0.0
  0
LINE
  5
2AA
330
21
100
AcDbEntity
  8
PAPER
100
AcDbLine
 10
1.080157201941511
 20
0.3133407931518792
 30
0.0
 11
1.080157201941512
 21
0.5527800035193094
 31
0.0
  0
LINE
  5
2AB
330
21
100
AcDbEntity
  8
PAPER
100
AcDbLine
 10
1.074386729371487
 20
0.3133407931518792
 30
0.0
 11
1.074386729371486
 21
0.5527800035193094
 31
0.0
  0
LINE
  5
2AC
330
21
100
AcDbEntity
  8
PAPER
100
AcDbLine
 10
1.068616256801463
 20
0.3133407931518792
 30
0.0
 11
1.068616256801462
 21
0.5527800035193094
 31
0.0
  0
LINE
  5
2AD
330
21
100
AcDbEntity
  8
PAPER
100
AcDbLine
 10
1.062845784231436
 20
0.3133407931518792
 30
0.0
 11
1.062845784231436
 21
0.5527800035193094
 31
0.0
  0
LINE
  5
2AE
330
21
100
AcDbEntity
  8
PAPER
100
AcDbLine
 10
1.057075311661411
 20
0.3133407931518792
 30
0.0
 11
1.057075311661411
 21
0.5527800035193094
 31
0.0
  0
LINE
  5
2AF
330
21
100
AcDbEntity
  8
PAPER
100
AcDbLine
 10
1.051304839091385
 20
0.3133407931518792
 30
0.0
 11
1.051304839091385
 21
0.5527800035193094
 31
0.0
  0
LINE
  5
2B0
330
21
100
AcDbEntity
  8
PAPER
100
AcDbLine
 10
1.045534366521361
 20
0.3133407931518792
 30
0.0
 11
1.045534366521359
 21
0.5527800035193094
 31
0.0
  0
LINE
  5
2B1
330
21
100
AcDbEntity
  8
PAPER
100
AcDbLine
 10
1.039763893951335
 20
0.3133407931518792
 30
0.0
 11
1.039763893951334
 21
0.5527800035193094
 31
0.0
  0
LWPOLYLINE
  5
2B2
330
21
100
AcDbEntity
  8
PAPER
100
AcDbPolyline
 90
       14
 70
     1
 43
0.0
 10
1.038763925574744
 20
0.5527800035193087
 10
1.03876392557474
 20
0.3133407931518795
 10
1.089379855288469
 20
0.3133407931518795
 10
1.089379855288469
 20
0.3852569655925058
 10
1.092510514459754
 20
0.3827513008486167
 42
0.1813224577874149
 10
1.120383683036873
 20
0.3736313603814156
 10
1.130267325542051
 20
0.3729614753605477
 42
0.4544349447676743
 10
1.170120722740361
 20
0.4128148725588541
 10
1.170120722740361
 20
0.5129266063210015
 42
0.4142135623730878
 10
1.130267325542051
 20
0.5527800035193083
 10
1.120383683036876
 20
0.5527800035193087
 42
0.085164233175497
 10
1.104442324157559
 20
0.5500448987409083
 42
0.0977825579206252
 10
1.088500965278228
 20
0.5406018889892099
 10
1.088500965278228
 20
0.5527800035193087
  0
LINE
  5
2C2
330
21
100
AcDbEntity
  8
PAPER
100
AcDbLine
 10
1.005141058531182
 20
0.3954708746429467
 30
0.0
 11
1.005141058531182
 21
0.5302706042367225
 31
0.0
  0
LINE
  5
2C3
330
21
100
AcDbEntity
  8
PAPER
100
AcDbLine
 10
0.9993705859611578
 20
0.3867069840087784
 30
0.0
 11
0.9993705859611578
 21
0.5390344948709885
 31
0.0
  0
LINE
  5
2C4
330
21
100
AcDbEntity
  8
PAPER
100
AcDbLine
 10
0.9936001133911329
 20
0.3812580552602627
 30
0.0
 11
0.9936001133911325
 21
0.544483423619665
 31
0.0
  0
LINE
  5
2C5
330
21
100
AcDbEntity
  8
PAPER
100
AcDbLine
 10
0.9878296408211067
 20
0.3775523303344543
 30
0.0
 11
0.9878296408211067
 21
0.5481891485453721
 31
0.0
  0
LINE
  5
2C6
330
21
100
AcDbEntity
  8
PAPER
100
AcDbLine
 10
0.982059168251083
 20
0.3750727960013103
 30
0.0
 11
0.9820591682510817
 21
0.5506686828785757
 31
0.0
  0
LINE
  5
2C7
330
21
100
AcDbEntity
  8
PAPER
100
AcDbLine
 10
0.9762886956810554
 20
0.3735862466045752
 30
0.0
 11
0.9762886956810554
 21
0.5521552322751651
 31
0.0
  0
LINE
  5
2C8
330
21
100
AcDbEntity
  8
PAPER
100
AcDbLine
 10
0.9705182231110313
 20
0.3729813547844605
 30
0.0
 11
0.9705182231110313
 21
0.552760124095406
 31
0.0
  0
LINE
  5
2C9
330
21
100
AcDbEntity
  8
PAPER
100
AcDbLine
 10
0.9647477505410051
 20
0.3729614753605472
 30
0.0
 11
0.9647477505410051
 21
0.5527800035193094
 31
0.0
  0
LINE
  5
2CA
330
21
100
AcDbEntity
  8
PAPER
100
AcDbLine
 10
0.9589772779709806
 20
0.3729614753605472
 30
0.0
 11
0.9589772779709793
 21
0.5527800035193094
 31
0.0
  0
LINE
  5
2CB
330
21
100
AcDbEntity
  8
PAPER
100
AcDbLine
 10
0.9532068054009556
 20
0.3729614753605472
 30
0.0
 11
0.9532068054009556
 21
0.5527800035193094
 31
0.0
  0
LINE
  5
2CC
330
21
100
AcDbEntity
  8
PAPER
100
AcDbLine
 10
0.9474363328309298
 20
0.3729614753605472
 30
0.0
 11
0.9474363328309298
 21
0.5527800035193094
 31
0.0
  0
LINE
  5
2CD
330
21
100
AcDbEntity
  8
PAPER
100
AcDbLine
 10
1.114780037361662
 20
0.5062165957140559
 30
0.0
 11
1.114780037361662
 21
0.5524505735420105
 31
0.0
  0
LINE
  5
2CE
330
21
100
AcDbEntity
  8
PAPER
100
AcDbLine
 10
1.103239092221613
 20
0.5136216100974148
 30
0.0
 11
1.103239092221613
 21
0.5496012548793717
 31
0.0
  0
LINE
  5
2CF
330
21
100
AcDbEntity
  8
PAPER
100
AcDbLine
 10
1.109009564791637
 20
0.5120051728320288
 30
0.0
 11
1.109009564791638
 21
0.5514077485938954
 31
0.0
  0
LINE
  5
2D0
330
21
100
AcDbEntity
  8
PAPER
100
AcDbLine
 10
1.091698147081564
 20
0.5085818423503062
 30
0.0
 11
1.091698147081564
 21
0.543221869091571
 31
0.0
  0
LINE
  5
2D1
330
21
100
AcDbEntity
  8
PAPER
100
AcDbLine
 10
1.09746861965159
 20
0.5127242929656618
 30
0.0
 11
1.097468619651589
 21
0.5469326129858912
 31
0.0
  0
LINE
  5
2D2
330
21
100
AcDbEntity
  8
PAPER
100
AcDbLine
 10
1.166714290491893
 20
0.3945030082581915
 30
0.0
 11
1.166714290491893
 21
0.5290483932627267
 31
0.0
  0
LINE
  5
2D3
330
21
100
AcDbEntity
  8
PAPER
100
AcDbLine
 10
1.160943817921867
 20
0.3856434272371085
 30
0.0
 11
1.160943817921867
 21
0.5383676378157574
 31
0.0
  0
LINE
  5
2D4
330
21
100
AcDbEntity
  8
PAPER
100
AcDbLine
 10
1.155173345351841
 20
0.3803058821927008
 30
0.0
 11
1.155173345351842
 21
0.5440390386509629
 31
0.0
  0
LINE
  5
2D5
330
21
100
AcDbEntity
  8
PAPER
100
AcDbLine
 10
1.149402872781816
 20
0.3767634869824137
 30
0.0
 11
1.149402872781816
 21
0.5478854978949615
 31
0.0
  0
LINE
  5
2D6
330
21
100
AcDbEntity
  8
PAPER
100
AcDbLine
 10
1.143632400211791
 20
0.3744794151308122
 30
0.0
 11
1.143632400211791
 21
0.550472152625712
 31
0.0
  0
LINE
  5
2D7
330
21
100
AcDbEntity
  8
PAPER
100
AcDbLine
 10
1.137861927641765
 20
0.3732203046739746
 30
0.0
 11
1.137861927641765
 21
0.5520496850240305
 31
0.0
  0
LINE
  5
2D8
330
21
100
AcDbEntity
  8
PAPER
100
AcDbLine
 10
1.13209145507174
 20
0.3728825001730855
 30
0.0
 11
1.13209145507174
 21
0.5527382355228115
 31
0.0
  0
LINE
  5
2D9
330
21
100
AcDbEntity
  8
PAPER
100
AcDbLine
 10
1.126320982501715
 20
0.3732289472049153
 30
0.0
 11
1.126320982501715
 21
0.5527800035193085
 31
0.0
  0
LINE
  5
2DA
330
21
100
AcDbEntity
  8
PAPER
100
AcDbLine
 10
1.12055050993169
 20
0.3736200533316258
 30
0.0
 11
1.12055050993169
 21
0.5527800035193085
 31
0.0
  0
LINE
  5
2DB
330
21
100
AcDbEntity
  8
PAPER
100
AcDbLine
 10
1.114780037361662
 20
0.3737693774901458
 30
0.0
 11
1.114780037361662
 21
0.4195248831656978
 31
0.0
  0
LINE
  5
2DC
330
21
100
AcDbEntity
  8
PAPER
100
AcDbLine
 10
1.109009564791638
 20
0.374711492745728
 30
0.0
 11
1.109009564791637
 21
0.413736306047788
 31
0.0
  0
LINE
  5
2DD
330
21
100
AcDbEntity
  8
PAPER
100
AcDbLine
 10
1.103239092221613
 20
0.3765241585887995
 30
0.0
 11
1.103239092221613
 21
0.4121198687824064
 31
0.0
  0
LINE
  5
2DE
330
21
100
AcDbEntity
  8
PAPER
100
AcDbLine
 10
1.097468619651589
 20
0.3793385658356045
 30
0.0
 11
1.09746861965159
 21
0.4130171859141426
 31
0.0
  0
LINE
  5
2DF
330
21
100
AcDbEntity
  8
PAPER
100
AcDbLine
 10
1.091698147081564
 20
0.3834014898941989
 30
0.0
 11
1.091698147081564
 21
0.4171596365294742
 31
0.0
  0
LWPOLYLINE
  5
2E0
330
21
100
AcDbEntity
  8
PAPER
100
AcDbPolyline
 90
        4
 70
     1
 43
0.0
 10
1.116398343317045
 20
0.426046200428692
 10
1.116398343317048
 20
0.4996952784511639
 42
1.000000000000026
 10
1.088500965278228
 20
0.4996952784511639
 10
1.088500965278228
 20
0.426046200428692
 42
0.9999999999999998
  0
LWPOLYLINE
  5
2E6
330
21
100
AcDbEntity
  8
PAPER
100
AcDbPolyline
 90
       11
 70
     1
 43
0.0
 10
1.496892326062627
 20
0.5524611763417231
 10
1.538684940030307
 20
0.5524611763417231
 10
1.47832378001591
 20
0.3612812631982389
 42
-0.3272249499159052
 10
1.440319618096905
 20
0.3334269053398247
 10
1.379271351237073
 20
0.3334269053398247
 10
1.379271351237077
 20
0.3531941903501854
 10
1.416400195556034
 20
0.3531941903501854
 42
0.500425742919699
 10
1.431697805839234
 20
0.3736199714378292
 10
1.37927135123708
 20
0.5524611763417231
 10
1.420801844924441
 20
0.5524611763417231
 10
1.457435914654356
 20
0.4274921846227587
  0
LINE
  5
2F3
330
21
100
AcDbEntity
  8
PAPER
100
AcDbLine
 10
1.426385556143035
 20
0.3334269053398244
 30
0.0
 11
1.426385556143035
 21
0.356708985067719
 31
0.0
  0
LINE
  5
2F4
330
21
100
AcDbEntity
  8
PAPER
100
AcDbLine
 10
1.420615083573007
 20
0.3334269053398244
 30
0.0
 11
1.420615083573008
 21
0.3537614917972822
 31
0.0
  0
LINE
  5
2F5
330
21
100
AcDbEntity
  8
PAPER
100
AcDbLine
 10
1.414844611002982
 20
0.3334269053398244
 30
0.0
 11
1.414844611002982
 21
0.3531941903501854
 31
0.0
  0
LINE
  5
2F6
330
21
100
AcDbEntity
  8
PAPER
100
AcDbLine
 10
1.409074138432958
 20
0.3334269053398244
 30
0.0
 11
1.409074138432958
 21
0.3531941903501854
 31
0.0
  0
LINE
  5
2F7
330
21
100
AcDbEntity
  8
PAPER
100
AcDbLine
 10
1.403303665862932
 20
0.3334269053398244
 30
0.0
 11
1.403303665862931
 21
0.3531941903501854
 31
0.0
  0
LINE
  5
2F8
330
21
100
AcDbEntity
  8
PAPER
100
AcDbLine
 10
1.397533193292907
 20
0.3334269053398244
 30
0.0
 11
1.397533193292907
 21
0.3531941903501854
 31
0.0
  0
LINE
  5
2F9
330
21
100
AcDbEntity
  8
PAPER
100
AcDbLine
 10
1.391762720722881
 20
0.3334269053398244
 30
0.0
 11
1.39176272072288
 21
0.3531941903501854
 31
0.0
  0
LINE
  5
2FA
330
21
100
AcDbEntity
  8
PAPER
100
AcDbLine
 10
1.385992248152857
 20
0.3334269053398244
 30
0.0
 11
1.385992248152856
 21
0.3531941903501854
 31
0.0
  0
LINE
  5
2FB
330
21
100
AcDbEntity
  8
PAPER
100
AcDbLine
 10
1.38022177558283
 20
0.3334269053398244
 30
0.0
 11
1.380221775582829
 21
0.3531941903501854
 31
0.0
  0
LWPOLYLINE
  5
2FC
330
21
100
AcDbEntity
  8
PAPER
100
AcDbPolyline
 90
       17
 70
     1
 43
0.0
 10
1.295738630709426
 20
0.3732803025381342
 10
1.359504066226716
 20
0.3732803025381322
 10
1.35950406622672
 20
0.5126077791434152
 42
0.4142135623730996
 10
1.319650669028414
 20
0.552461176341722
 10
1.239943874631795
 20
0.5524611763417231
 42
0.3563939586927657
 10
1.200895679570868
 20
0.5205784585830566
 10
1.200895679570913
 20
0.5008111735727168
 10
1.263855912950778
 20
0.5008111735727168
 10
1.263855912950778
 20
0.5205784585830769
 10
1.295738630709426
 20
0.5205784585830769
 10
1.295738630709426
 20
0.4940481662509573
 10
1.223550682378897
 20
0.4550019875673489
 42
0.2561579178272127
 10
1.200090477433492
 20
0.4186762870785018
 10
1.200090477433492
 20
0.4131336997364419
 42
0.4142135623730949
 10
1.239943874631795
 20
0.3732803025381342
 10
1.263855912950778
 20
0.3732803025381348
 42
0.3566469110183342
 10
1.295100180665887
 20
0.3988145223150423
  0
LINE
  5
30F
330
21
100
AcDbEntity
  8
PAPER
100
AcDbLine
 10
1.29366468703245
 20
0.4667081515446839
 30
0.0
 11
1.29366468703245
 21
0.4929263782342071
 31
0.0
  0
LINE
  5
310
330
21
100
AcDbEntity
  8
PAPER
100
AcDbLine
 10
1.276353269322374
 20
0.4687602077781364
 30
0.0
 11
1.276353269322374
 21
0.4835627001576509
 31
0.0
  0
LINE
  5
311
330
21
100
AcDbEntity
  8
PAPER
100
AcDbLine
 10
1.282123741892401
 20
0.4715561523690378
 30
0.0
 11
1.282123741892401
 21
0.4866839261831702
 31
0.0
  0
LINE
  5
312
330
21
100
AcDbEntity
  8
PAPER
100
AcDbLine
 10
1.287894214462424
 20
0.4710911479496545
 30
0.0
 11
1.287894214462425
 21
0.4898051522086887
 31
0.0
  0
LINE
  5
313
330
21
100
AcDbEntity
  8
PAPER
100
AcDbLine
 10
1.29366468703245
 20
0.5205784585830767
 30
0.0
 11
1.29366468703245
 21
0.5524611763417225
 31
0.0
  0
LINE
  5
314
330
21
100
AcDbEntity
  8
PAPER
100
AcDbLine
 10
1.287894214462425
 20
0.5205784585830767
 30
0.0
 11
1.287894214462425
 21
0.5524611763417225
 31
0.0
  0
LINE
  5
315
330
21
100
AcDbEntity
  8
PAPER
100
AcDbLine
 10
1.270582796752349
 20
0.5205784585830767
 30
0.0
 11
1.27058279675235
 21
0.5524611763417225
 31
0.0
  0
LINE
  5
316
330
21
100
AcDbEntity
  8
PAPER
100
AcDbLine
 10
1.276353269322376
 20
0.5205784585830767
 30
0.0
 11
1.276353269322374
 21
0.5524611763417225
 31
0.0
  0
LINE
  5
317
330
21
100
AcDbEntity
  8
PAPER
100
AcDbLine
 10
1.282123741892401
 20
0.5205784585830767
 30
0.0
 11
1.2821237418924
 21
0.5524611763417225
 31
0.0
  0
LINE
  5
318
330
21
100
AcDbEntity
  8
PAPER
100
AcDbLine
 10
1.253271379042273
 20
0.5008111735727166
 30
0.0
 11
1.253271379042273
 21
0.5524611763417234
 31
0.0
  0
LINE
  5
319
330
21
100
AcDbEntity
  8
PAPER
100
AcDbLine
 10
1.264812324182323
 20
0.5205784585830767
 30
0.0
 11
1.264812324182322
 21
0.5524611763417225
 31
0.0
  0
LINE
  5
31A
330
21
100
AcDbEntity
  8
PAPER
100
AcDbLine
 10
1.259041851612298
 20
0.5008111735727166
 30
0.0
 11
1.259041851612298
 21
0.5524611763417225
 31
0.0
  0
LINE
  5
31B
330
21
100
AcDbEntity
  8
PAPER
100
AcDbLine
 10
1.235959961332196
 20
0.5008111735727166
 30
0.0
 11
1.235959961332196
 21
0.5522615520163646
 31
0.0
  0
LINE
  5
31C
330
21
100
AcDbEntity
  8
PAPER
100
AcDbLine
 10
1.247500906472249
 20
0.5008111735727166
 30
0.0
 11
1.247500906472248
 21
0.5524611763417234
 31
0.0
  0
LINE
  5
31D
330
21
100
AcDbEntity
  8
PAPER
100
AcDbLine
 10
1.241730433902222
 20
0.5008111735727166
 30
0.0
 11
1.241730433902222
 21
0.5524611763417234
 31
0.0
  0
LINE
  5
31E
330
21
100
AcDbEntity
  8
PAPER
100
AcDbLine
 10
1.218648543622122
 20
0.5008111735727166
 30
0.0
 11
1.218648543622121
 21
0.5462946036515167
 31
0.0
  0
LINE
  5
31F
330
21
100
AcDbEntity
  8
PAPER
100
AcDbLine
 10
1.224419016192147
 20
0.5008111735727166
 30
0.0
 11
1.224419016192147
 21
0.5493129836609637
 31
0.0
  0
LINE
  5
320
330
21
100
AcDbEntity
  8
PAPER
100
AcDbLine
 10
1.230189488762171
 20
0.5008111735727166
 30
0.0
 11
1.230189488762171
 21
0.5512490165014013
 31
0.0
  0
LINE
  5
321
330
21
100
AcDbEntity
  8
PAPER
100
AcDbLine
 10
1.201337125912043
 20
0.5008111735727166
 30
0.0
 11
1.201337125912044
 21
0.5224977852874363
 31
0.0
  0
LINE
  5
322
330
21
100
AcDbEntity
  8
PAPER
100
AcDbLine
 10
1.207107598482069
 20
0.5008111735727166
 30
0.0
 11
1.20710759848207
 21
0.5351925580190516
 31
0.0
  0
LINE
  5
323
330
21
100
AcDbEntity
  8
PAPER
100
AcDbLine
 10
1.212878071052095
 20
0.5008111735727166
 30
0.0
 11
1.212878071052095
 21
0.5418607370250753
 31
0.0
  0
LINE
  5
324
330
21
100
AcDbEntity
  8
PAPER
100
AcDbLine
 10
1.305205632172501
 20
0.3732803025381342
 30
0.0
 11
1.305205632172501
 21
0.5524611763417225
 31
0.0
  0
LINE
  5
325
330
21
100
AcDbEntity
  8
PAPER
100
AcDbLine
 10
1.299435159602477
 20
0.3732803025381342
 30
0.0
 11
1.299435159602475
 21
0.5524611763417225
 31
0.0
  0
LINE
  5
326
330
21
100
AcDbEntity
  8
PAPER
100
AcDbLine
 10
1.293664687032449
 20
0.3938517569086384
 30
0.0
 11
1.29366468703245
 21
0.4117227115912535
 31
0.0
  0
LINE
  5
327
330
21
100
AcDbEntity
  8
PAPER
100
AcDbLine
 10
1.287894214462425
 20
0.3842186236207439
 30
0.0
 11
1.287894214462424
 21
0.407339715186329
 31
0.0
  0
LINE
  5
328
330
21
100
AcDbEntity
  8
PAPER
100
AcDbLine
 10
1.282123741892401
 20
0.379032690841379
 30
0.0
 11
1.282123741892401
 21
0.4068747107669493
 31
0.0
  0
LINE
  5
329
330
21
100
AcDbEntity
  8
PAPER
100
AcDbLine
 10
1.276353269322374
 20
0.3758317438941174
 30
0.0
 11
1.276353269322374
 21
0.4096706553578285
 31
0.0
  0
LINE
  5
32A
330
21
100
AcDbEntity
  8
PAPER
100
AcDbLine
 10
1.270582796752349
 20
0.3739980283024227
 30
0.0
 11
1.27058279675235
 21
0.4804414741321315
 31
0.0
  0
LINE
  5
32B
330
21
100
AcDbEntity
  8
PAPER
100
AcDbLine
 10
1.264812324182323
 20
0.3732946508806278
 30
0.0
 11
1.264812324182322
 21
0.4773202481066122
 31
0.0
  0
LINE
  5
32C
330
21
100
AcDbEntity
  8
PAPER
100
AcDbLine
 10
1.259041851612298
 20
0.3732803025381342
 30
0.0
 11
1.259041851612298
 21
0.4741990220810937
 31
0.0
  0
LINE
  5
32D
330
21
100
AcDbEntity
  8
PAPER
100
AcDbLine
 10
1.253271379042273
 20
0.3732803025381342
 30
0.0
 11
1.253271379042273
 21
0.4710777960555744
 31
0.0
  0
LINE
  5
32E
330
21
100
AcDbEntity
  8
PAPER
100
AcDbLine
 10
1.247500906472248
 20
0.3732803025381342
 30
0.0
 11
1.247500906472249
 21
0.4679565700300559
 31
0.0
  0
LINE
  5
32F
330
21
100
AcDbEntity
  8
PAPER
100
AcDbLine
 10
1.241730433902221
 20
0.3732803025381342
 30
0.0
 11
1.24173043390222
 21
0.4648353440045357
 31
0.0
  0
LINE
  5
330
330
21
100
AcDbEntity
  8
PAPER
100
AcDbLine
 10
1.235959961332196
 20
0.3734799268633269
 30
0.0
 11
1.235959961332195
 21
0.4617141179790173
 31
0.0
  0
LINE
  5
331
330
21
100
AcDbEntity
  8
PAPER
100
AcDbLine
 10
1.230189488762171
 20
0.3744924623784367
 30
0.0
 11
1.230189488762171
 21
0.4585928919534979
 31
0.0
  0
LINE
  5
332
330
21
100
AcDbEntity
  8
PAPER
100
AcDbLine
 10
1.224419016192147
 20
0.3764284952188237
 30
0.0
 11
1.224419016192147
 21
0.4554716659279795
 31
0.0
  0
LINE
  5
333
330
21
100
AcDbEntity
  8
PAPER
100
AcDbLine
 10
1.218648543622121
 20
0.37944687522834
 30
0.0
 11
1.218648543622122
 21
0.4519271817389744
 31
0.0
  0
LINE
  5
334
330
21
100
AcDbEntity
  8
PAPER
100
AcDbLine
 10
1.212878071052095
 20
0.3838807418546126
 30
0.0
 11
1.212878071052094
 21
0.4469750218450262
 31
0.0
  0
LINE
  5
335
330
21
100
AcDbEntity
  8
PAPER
100
AcDbLine
 10
1.207107598482069
 20
0.3905489208606176
 30
0.0
 11
1.207107598482069
 21
0.4397500811894373
 31
0.0
  0
LINE
  5
336
330
21
100
AcDbEntity
  8
PAPER
100
AcDbLine
 10
1.201337125912044
 20
0.4032436935918041
 30
0.0
 11
1.201337125912043
 21
0.4264327884905129
 31
0.0
  0
LWPOLYLINE
  5
337
330
21
100
AcDbEntity
  8
PAPER
100
AcDbPolyline
 90
        4
 70
     1
 43
0.0
 10
1.295718974745186
 20
0.4183177358485317
 10
1.295718974745186
 20
0.4601131272875233
 42
0.9999999999999998
 10
1.272492217045953
 20
0.4601131272875233
 10
1.272492217045953
 20
0.4183177358485317
 42
1.000000000000047
  0
LINE
  5
33D
330
21
100
AcDbEntity
  8
PAPER
100
AcDbLine
 10
1.426385556143036
 20
0.3917415313187778
 30
0.0
 11
1.426385556143033
 21
0.5334135857742009
 31
0.0
  0
LINE
  5
33E
330
21
100
AcDbEntity
  8
PAPER
100
AcDbLine
 10
1.420615083573008
 20
0.4114262167532593
 30
0.0
 11
1.420615083573008
 21
0.5524611763417234
 31
0.0
  0
LINE
  5
33F
330
21
100
AcDbEntity
  8
PAPER
100
AcDbLine
 10
1.409074138432958
 20
0.4507955876222017
 30
0.0
 11
1.409074138432958
 21
0.5524611763417234
 31
0.0
  0
LINE
  5
340
330
21
100
AcDbEntity
  8
PAPER
100
AcDbLine
 10
1.414844611002983
 20
0.4311109021877309
 30
0.0
 11
1.414844611002983
 21
0.5524611763417234
 31
0.0
  0
LINE
  5
341
330
21
100
AcDbEntity
  8
PAPER
100
AcDbLine
 10
1.403303665862932
 20
0.4704802730566814
 30
0.0
 11
1.403303665862934
 21
0.5524611763417234
 31
0.0
  0
LINE
  5
342
330
21
100
AcDbEntity
  8
PAPER
100
AcDbLine
 10
1.397533193292907
 20
0.4901649584911583
 30
0.0
 11
1.397533193292907
 21
0.5524611763417234
 31
0.0
  0
LINE
  5
343
330
21
100
AcDbEntity
  8
PAPER
100
AcDbLine
 10
1.385992248152856
 20
0.5295343293601088
 30
0.0
 11
1.385992248152857
 21
0.5524611763417234
 31
0.0
  0
LINE
  5
344
330
21
100
AcDbEntity
  8
PAPER
100
AcDbLine
 10
1.391762720722881
 20
0.5098496439256362
 30
0.0
 11
1.391762720722881
 21
0.5524611763417234
 31
0.0
  0
LINE
  5
345
330
21
100
AcDbEntity
  8
PAPER
100
AcDbLine
 10
1.38022177558283
 20
0.5492190147945867
 30
0.0
 11
1.380221775582831
 21
0.5524611763417234
 31
0.0
  0
LINE
  5
346
330
21
100
AcDbEntity
  8
PAPER
100
AcDbLine
 10
1.357139885302729
 20
0.3732803025381324
 30
0.0
 11
1.357139885302729
 21
0.5261300545205117
 31
0.0
  0
LINE
  5
347
330
21
100
AcDbEntity
  8
PAPER
100
AcDbLine
 10
1.351369412732704
 20
0.3732803025381324
 30
0.0
 11
1.351369412732704
 21
0.536736901921884
 31
0.0
  0
LINE
  5
348
330
21
100
AcDbEntity
  8
PAPER
100
AcDbLine
 10
1.345598940162679
 20
0.3732803025381324
 30
0.0
 11
1.345598940162679
 21
0.542856423631714
 31
0.0
  0
LINE
  5
349
330
21
100
AcDbEntity
  8
PAPER
100
AcDbLine
 10
1.339828467592653
 20
0.3732803025381324
 30
0.0
 11
1.339828467592653
 21
0.5469756378683613
 31
0.0
  0
LINE
  5
34A
330
21
100
AcDbEntity
  8
PAPER
100
AcDbLine
 10
1.334057995022629
 20
0.3732803025381324
 30
0.0
 11
1.334057995022629
 21
0.5497658499482022
 31
0.0
  0
LINE
  5
34B
330
21
100
AcDbEntity
  8
PAPER
100
AcDbLine
 10
1.328287522452602
 20
0.3732803025381333
 30
0.0
 11
1.328287522452602
 21
0.5515140515318916
 31
0.0
  0
LINE
  5
34C
330
21
100
AcDbEntity
  8
PAPER
100
AcDbLine
 10
1.322517049882577
 20
0.3732803025381333
 30
0.0
 11
1.322517049882577
 21
0.5523579631560212
 31
0.0
  0
LINE
  5
34D
330
21
100
AcDbEntity
  8
PAPER
100
AcDbLine
 10
1.316746577312552
 20
0.3732803025381333
 30
0.0
 11
1.316746577312551
 21
0.5524611763417225
 31
0.0
  0
LINE
  5
34E
330
21
100
AcDbEntity
  8
PAPER
100
AcDbLine
 10
1.310976104742527
 20
0.3732803025381342
 30
0.0
 11
1.310976104742527
 21
0.5524611763417225
 31
0.0
  0
LINE
  5
34F
330
21
100
AcDbEntity
  8
PAPER
100
AcDbLine
 10
1.443696973853109
 20
0.3335702693432709
 30
0.0
 11
1.443696973853109
 21
0.4743595294707779
 31
0.0
  0
LINE
  5
350
330
21
100
AcDbEntity
  8
PAPER
100
AcDbLine
 10
1.449467446423135
 20
0.3344909933775575
 30
0.0
 11
1.449467446423136
 21
0.4546748440363027
 31
0.0
  0
LINE
  5
351
330
21
100
AcDbEntity
  8
PAPER
100
AcDbLine
 10
1.455237918993159
 20
0.3363244157728322
 30
0.0
 11
1.455237918993159
 21
0.434990158601832
 31
0.0
  0
LINE
  5
352
330
21
100
AcDbEntity
  8
PAPER
100
AcDbLine
 10
1.461008391563187
 20
0.3392175968220312
 30
0.0
 11
1.461008391563184
 21
0.4388071730188433
 31
0.0
  0
LINE
  5
353
330
21
100
AcDbEntity
  8
PAPER
100
AcDbLine
 10
1.46677886413321
 20
0.3434775917984794
 30
0.0
 11
1.466778864133209
 21
0.4570838006461269
 31
0.0
  0
LINE
  5
354
330
21
100
AcDbEntity
  8
PAPER
100
AcDbLine
 10
1.472549336703235
 20
0.3498380648719495
 30
0.0
 11
1.472549336703237
 21
0.4753604282734159
 31
0.0
  0
LINE
  5
355
330
21
100
AcDbEntity
  8
PAPER
100
AcDbLine
 10
1.478319809273261
 20
0.3612686940363037
 30
0.0
 11
1.47831980927326
 21
0.4936370559007023
 31
0.0
  0
LINE
  5
356
330
21
100
AcDbEntity
  8
PAPER
100
AcDbLine
 10
1.437926501283085
 20
0.3334269053398244
 30
0.0
 11
1.437926501283083
 21
0.4940442149052523
 31
0.0
  0
LINE
  5
357
330
21
100
AcDbEntity
  8
PAPER
100
AcDbLine
 10
1.432156028713059
 20
0.3334269053398244
 30
0.0
 11
1.43215602871306
 21
0.5137289003397293
 31
0.0
  0
LINE
  5
358
330
21
100
AcDbEntity
  8
PAPER
100
AcDbLine
 10
1.536024534973513
 20
0.5440349630687658
 30
0.0
 11
1.536024534973513
 21
0.5524611763417234
 31
0.0
  0
LINE
  5
359
330
21
100
AcDbEntity
  8
PAPER
100
AcDbLine
 10
1.530254062403488
 20
0.5257583354414786
 30
0.0
 11
1.530254062403488
 21
0.5524611763417234
 31
0.0
  0
LINE
  5
35A
330
21
100
AcDbEntity
  8
PAPER
100
AcDbLine
 10
1.484090281843287
 20
0.3795453144231791
 30
0.0
 11
1.484090281843287
 21
0.5119136835279904
 31
0.0
  0
LINE
  5
35B
330
21
100
AcDbEntity
  8
PAPER
100
AcDbLine
 10
1.489860754413312
 20
0.3978219420504663
 30
0.0
 11
1.489860754413312
 21
0.5301903111552776
 31
0.0
  0
LINE
  5
35C
330
21
100
AcDbEntity
  8
PAPER
100
AcDbLine
 10
1.495631226983337
 20
0.4160985696777536
 30
0.0
 11
1.495631226983337
 21
0.548466938782563
 31
0.0
  0
LINE
  5
35D
330
21
100
AcDbEntity
  8
PAPER
100
AcDbLine
 10
1.501401699553362
 20
0.4343751973050417
 30
0.0
 11
1.501401699553362
 21
0.5524611763417234
 31
0.0
  0
LINE
  5
35E
330
21
100
AcDbEntity
  8
PAPER
100
AcDbLine
 10
1.507172172123388
 20
0.4526518249323289
 30
0.0
 11
1.507172172123389
 21
0.5524611763417234
 31
0.0
  0
LINE
  5
35F
330
21
100
AcDbEntity
  8
PAPER
100
AcDbLine
 10
1.512942644693415
 20
0.4709284525596223
 30
0.0
 11
1.512942644693415
 21
0.5524611763417234
 31
0.0
  0
LINE
  5
360
330
21
100
AcDbEntity
  8
PAPER
100
AcDbLine
 10
1.518713117263439
 20
0.4892050801869095
 30
0.0
 11
1.518713117263439
 21
0.5524611763417234
 31
0.0
  0
LINE
  5
361
330
21
100
AcDbEntity
  8
PAPER
100
AcDbLine
 10
1.524483589833462
 20
0.5074817078141914
 30
0.0
 11
1.524483589833462
 21
0.5524611763417234
 31
0.0
  0
ENDBLK
  5
362
330
21
100
AcDbEntity
  8
0
100
AcDbBlockEnd
  0
BLOCK
  5
5D2
330
5D0
100
AcDbEntity
  8
0
100
AcDbBlockBegin
  2
A$C0C8E303C
 70
     0
 10
0.0
 20
0.0
 30
0.0
  3
A$C0C8E303C
  1

  0
TEXT
  5
5D1
330
5D0
100
AcDbEntity
  8
PAPER
100
AcDbText
 10
-0.0133333404476792
 20
0.0133333293341025
 30
0.833359574243258
 40
0.07
  1
REV. DEC. 3, 1997
  7
STANDARD
 72
     2
 11
1.016666659552321
 21
0.0133333293341025
 31
0.833359574243258
100
AcDbText
  0
ENDBLK
  5
5D3
330
5D0
100
AcDbEntity
  8
0
100
AcDbBlockEnd
  0
ENDSEC
  0
SECTION
  2
ENTITIES
  0
TEXT
  5
369
330
17
100
AcDbEntity
  8
HL-TRACK
100
AcDbText
 10
8.00724262546298
 20
0.2266045685655246
 30
0.0
 40
0.06
  1
 
100
AcDbText
  0
SOLID
  5
36D
330
17
100
AcDbEntity
  8
PAPER
100
AcDbTrace
 10
6.591144460990098
 20
7.010038544237179
 30
0.0
 11
6.58730229828756
 21
6.987023717924308
 31
0.0
 12
6.658267858577447
 22
6.987004642973137
 32
0.0
 13
6.658267858577447
 23
6.987004642973137
 33
0.0
  0
LINE
  5
36E
330
17
100
AcDbEntity
  8
PAPER
100
AcDbLine
 10
6.589223379638829
 20
6.998531131080744
 30
0.0
 11
6.122476138744631
 21
7.076451286379596
 31
0.0
  0
INSERT
  5
36F
330
17
100
AcDbEntity
  8
PAPER
100
AcDbBlockReference
  2
RECT
 10
0.3583906971413434
 20
7.876549895534203
 30
0.0
 41
0.09375
 42
0.09375
 43
0.09375
  0
INSERT
  5
370
330
17
100
AcDbEntity
  8
PAPER
100
AcDbBlockReference
  2
RECT
 10
0.3583906971413434
 20
7.732358106122198
 30
0.0
 41
0.09375
 42
0.09375
 43
0.09375
  0
TEXT
  5
371
330
17
100
AcDbEntity
  8
PAPER
100
AcDbText
 10
0.496140539975119
 20
7.742613249759417
 30
0.0
 40
0.07
  1
STRAIGHT INCLINE (OPTIONAL) *
  7
arial1
100
AcDbText
  0
TEXT
  5
372
330
17
100
AcDbEntity
  8
PAPER
100
AcDbText
 10
0.496140539975119
 20
7.883898026813499
 30
0.0
 40
0.07
  1
BREAKAWAY 
  7
arial1
100
AcDbText
  0
INSERT
  5
373
330
17
100
AcDbEntity
  8
PAPER
100
AcDbBlockReference
  2
RECT
 10
5.470373779377569
 20
2.393048593293257
 30
0.0
 41
0.09375
 42
0.09375
 43
0.09375
  0
INSERT
  5
374
330
17
100
AcDbEntity
  8
PAPER
100
AcDbBlockReference
  2
RECT
 10
5.470373779377569
 20
2.539679731245332
 30
0.0
 41
0.09375
 42
0.09375
 43
0.09375
  0
TEXT
  5
375
330
17
100
AcDbEntity
  8
PAPER
100
AcDbText
 10
5.620349811126948
 20
2.408768485667715
 30
0.0
 40
0.07
  1
CHAIN HOIST 
  7
arial1
100
AcDbText
  0
TEXT
  5
376
330
17
100
AcDbEntity
  8
PAPER
100
AcDbText
 10
5.620349811126948
 20
2.551502910192528
 30
0.0
 40
0.07
  1
JACKSHAFT 
  7
arial1
100
AcDbText
  0
TEXT
  5
377
330
17
100
AcDbEntity
  8
PAPER
100
AcDbText
 10
5.399221405756377
 20
2.915662112492455
 30
0.0
 40
0.07
  1
%%uOPERATOR:
  7
ARIAL2
100
AcDbText
  0
LINE
  5
378
330
17
100
AcDbEntity
  8
PAPER
100
AcDbLine
 10
5.259221405756377
 20
2.950662112492455
 30
0.0
 11
5.329221405756377
 21
2.950662112492455
 31
0.0
  0
LINE
  5
379
330
17
100
AcDbEntity
  8
PAPER
100
AcDbLine
 10
4.97861800530003
 20
2.694789999252757
 30
0.0
 11
5.259221405756377
 21
2.950662112492455
 31
0.0
  0
SOLID
  5
37A
330
17
100
AcDbEntity
  8
PAPER
100
AcDbTrace
 10
4.986478933943572
 20
2.686169273530855
 30
0.0
 11
4.970757076656488
 21
2.703410724974657
 31
0.0
 12
4.926893650968623
 22
2.647624427391503
 32
0.0
 13
4.926893650968623
 23
2.647624427391503
 33
0.0
  0
LINE
  5
37B
330
17
100
AcDbEntity
  8
PAPER
100
AcDbLine
 10
5.088604424612537
 20
2.707255906436839
 30
0.0
 11
5.088604424612537
 21
2.685088435354042
 31
0.0
  0
LINE
  5
37C
330
17
100
AcDbEntity
  8
PAPER
100
AcDbLine
 10
4.55061449466863
 20
3.000276471909653
 30
0.0
 11
4.55061449466863
 21
2.883716486037082
 31
0.0
  0
LINE
  5
37D
330
17
100
AcDbEntity
  8
PAPER
100
AcDbLine
 10
4.55061449466863
 20
2.883716486037082
 30
0.0
 11
4.584713461058017
 21
2.883716486037082
 31
0.0
  0
LINE
  5
37E
330
17
100
AcDbEntity
  8
PAPER
100
AcDbLine
 10
4.584713461058017
 20
2.883716486037082
 30
0.0
 11
4.584713461058017
 21
3.000276471909653
 31
0.0
  0
LINE
  5
37F
330
17
100
AcDbEntity
  8
PAPER
100
AcDbLine
 10
4.55061449466863
 20
2.747320620479525
 30
0.0
 11
4.55061449466863
 21
2.645023721311355
 31
0.0
  0
LINE
  5
380
330
17
100
AcDbEntity
  8
PAPER
100
AcDbLine
 10
4.55061449466863
 20
2.645023721311355
 30
0.0
 11
4.584713461058017
 21
2.645023721311355
 31
0.0
  0
LINE
  5
381
330
17
100
AcDbEntity
  8
PAPER
100
AcDbLine
 10
4.584713461058017
 20
2.645023721311355
 30
0.0
 11
4.584713461058017
 21
2.747320620479525
 31
0.0
  0
LINE
  5
382
330
17
100
AcDbEntity
  8
PAPER
100
AcDbLine
 10
4.584713461058017
 20
2.747320620479525
 30
0.0
 11
4.55061449466863
 21
2.747320620479525
 31
0.0
  0
LINE
  5
383
330
17
100
AcDbEntity
  8
PAPER
100
AcDbLine
 10
4.6529113938368
 20
2.815518553258298
 30
0.0
 11
4.6529113938368
 21
2.707255906436839
 31
0.0
  0
LINE
  5
384
330
17
100
AcDbEntity
  8
PAPER
100
AcDbLine
 10
4.6529113938368
 20
2.372231990196243
 30
0.0
 11
5.028000024120072
 21
2.372231990196243
 31
0.0
  0
LINE
  5
385
330
17
100
AcDbEntity
  8
PAPER
100
AcDbLine
 10
5.028000024120072
 20
2.372231990196243
 30
0.0
 11
5.028000024120072
 21
2.685088435354042
 31
0.0
  0
LINE
  5
386
330
17
100
AcDbEntity
  8
PAPER
100
AcDbLine
 10
5.028000024120072
 20
2.815518553258298
 30
0.0
 11
4.6529113938368
 21
2.815518553258298
 31
0.0
  0
LINE
  5
387
330
17
100
AcDbEntity
  8
PAPER
100
AcDbLine
 10
4.687010360226187
 20
2.815518553258298
 30
0.0
 11
4.687010360226187
 21
2.372231990196243
 31
0.0
  0
LINE
  5
388
330
17
100
AcDbEntity
  8
PAPER
100
AcDbLine
 10
4.993901057730686
 20
2.815518553258298
 30
0.0
 11
4.993901057730686
 21
2.372231990196243
 31
0.0
  0
LINE
  5
389
330
17
100
AcDbEntity
  8
PAPER
100
AcDbLine
 10
4.584713461058017
 20
2.707255906436839
 30
0.0
 11
4.687010360226176
 21
2.707255906436839
 31
0.0
  0
LINE
  5
38A
330
17
100
AcDbEntity
  8
PAPER
100
AcDbLine
 10
4.584713461058017
 20
2.685088435354042
 30
0.0
 11
4.687010360226176
 21
2.685088435354042
 31
0.0
  0
LINE
  5
38B
330
17
100
AcDbEntity
  8
PAPER
100
AcDbLine
 10
4.993901057730675
 20
2.707255906436839
 30
0.0
 11
5.088604424612537
 21
2.707255906436839
 31
0.0
  0
LINE
  5
38C
330
17
100
AcDbEntity
  8
PAPER
100
AcDbLine
 10
4.993901057730675
 20
2.685088435354042
 30
0.0
 11
5.088604424612537
 21
2.685088435354042
 31
0.0
  0
LINE
  5
38D
330
17
100
AcDbEntity
  8
PAPER
100
AcDbLine
 10
4.6529113938368
 20
2.685088435354042
 30
0.0
 11
4.6529113938368
 21
2.372231990196243
 31
0.0
  0
LINE
  5
38E
330
17
100
AcDbEntity
  8
PAPER
100
AcDbLine
 10
5.028000024120072
 20
2.707255906436839
 30
0.0
 11
5.028000024120072
 21
2.815518553258298
 31
0.0
  0
LINE
  5
38F
330
17
100
AcDbEntity
  8
PAPER
100
AcDbLine
 10
4.567663977863324
 20
2.883716486037082
 30
0.0
 11
4.567663977863324
 21
2.747320620479525
 31
0.0
  0
LINE
  5
390
330
17
100
AcDbEntity
  8
PAPER
100
AcDbLine
 10
4.584713461058017
 20
3.000276471909653
 30
0.0
 11
4.55061449466863
 21
3.000276471909653
 31
0.0
  0
LINE
  5
391
330
17
100
AcDbEntity
  8
PAPER
100
AcDbLine
 10
4.584713461058017
 20
2.960469371542366
 30
0.0
 11
4.785898796265497
 21
2.960469371542366
 31
0.0
  0
LINE
  5
392
330
17
100
AcDbEntity
  8
PAPER
100
AcDbLine
 10
4.584713461058017
 20
2.923523586404372
 30
0.0
 11
4.785898796265497
 21
2.923523586404372
 31
0.0
  0
LINE
  5
393
330
17
100
AcDbEntity
  8
PAPER
100
AcDbLine
 10
4.785898796265497
 20
2.960469371542366
 30
0.0
 11
4.785898796265497
 21
2.923523586404372
 31
0.0
  0
INSERT
  5
395
330
17
100
AcDbEntity
  8
PAPER
100
AcDbBlockReference
  2
RECT
 10
3.143335296359472
 20
1.950597645136152
 30
0.0
 41
0.09375
 42
0.09375
 43
0.09375
  0
INSERT
  5
396
330
17
100
AcDbEntity
  8
PAPER
100
AcDbBlockReference
  2
RECT
 10
3.143335296359472
 20
2.087696576884568
 30
0.0
 41
0.09375
 42
0.09375
 43
0.09375
  0
INSERT
  5
397
330
17
100
AcDbEntity
  8
PAPER
100
AcDbBlockReference
  2
RECT
 10
3.143335296359472
 20
2.221537038900718
 30
0.0
 41
0.09375
 42
0.09375
 43
0.09375
  0
INSERT
  5
398
330
17
100
AcDbEntity
  8
PAPER
100
AcDbBlockReference
  2
RECT
 10
3.143335296359472
 20
2.35660927903957
 30
0.0
 41
0.09375
 42
0.09375
 43
0.09375
  0
TEXT
  5
399
330
17
100
AcDbEntity
  8
PAPER
100
AcDbText
 10
3.294061454236141
 20
1.963314890754953
 30
0.0
 40
0.07
  1
100,000 CYCLE
  7
arial1
100
AcDbText
  0
TEXT
  5
39A
330
17
100
AcDbEntity
  8
PAPER
100
AcDbText
 10
3.294061454236141
 20
2.099532375815229
 30
0.0
 40
0.07
  1
50,000 CYCLE
  7
arial1
100
AcDbText
  0
TEXT
  5
39B
330
17
100
AcDbEntity
  8
PAPER
100
AcDbText
 10
3.294061454236141
 20
2.232491391143237
 30
0.0
 40
0.07
  1
25,000 CYCLE
  7
arial1
100
AcDbText
  0
TEXT
  5
39C
330
17
100
AcDbEntity
  8
PAPER
100
AcDbText
 10
3.294061454236141
 20
2.368708876203514
 30
0.0
 40
0.07
  1
10,000 CYCLE
  7
arial1
100
AcDbText
  0
LINE
  5
39D
330
17
100
AcDbEntity
  8
PAPER
100
AcDbLine
 10
0.9135678838363725
 20
2.772183477814955
 30
0.0
 11
0.9135678838363725
 21
2.503890835202262
 31
0.0
  0
LINE
  5
39E
330
17
100
AcDbEntity
  8
PAPER
100
AcDbLine
 10
0.9215287692874021
 20
2.772183477814955
 30
0.0
 11
0.9215287692874021
 21
2.503890835202262
 31
0.0
  0
LINE
  5
39F
330
17
100
AcDbEntity
  8
PAPER
100
AcDbLine
 10
4.29699655677728
 20
2.772183477814955
 30
0.0
 11
4.29699655677728
 21
2.5715260379726
 31
0.0
  0
LINE
  5
3A0
330
17
100
AcDbEntity
  8
PAPER
100
AcDbLine
 10
4.304957442228309
 20
2.772183477814955
 30
0.0
 11
4.304957442228309
 21
2.5715260379726
 31
0.0
  0
LINE
  5
3A1
330
17
100
AcDbEntity
  8
PAPER
100
AcDbLine
 10
1.133348957653847
 20
2.923227898919238
 30
0.0
 11
1.490583299584043
 21
2.923227898919236
 31
0.0
  0
LINE
  5
3A2
330
17
100
AcDbEntity
  8
PAPER
100
AcDbLine
 10
1.133348957653847
 20
2.960765059027499
 30
0.0
 11
1.490583299584043
 21
2.960765059027499
 31
0.0
  0
LWPOLYLINE
  5
3A3
330
17
100
AcDbEntity
  8
PAPER
100
AcDbPolyline
 90
        4
 70
     1
 43
0.0
 10
4.325661806614556
 20
2.769560149726039
 10
4.325661806614556
 20
3.114432808220696
 10
4.311585371573958
 20
3.114432808220696
 10
4.311585371573958
 20
2.769560149726039
  0
LWPOLYLINE
  5
3A9
330
17
100
AcDbEntity
  8
PAPER
100
AcDbPolyline
 90
        4
 70
     1
 43
0.0
 10
4.100438845964984
 20
2.849326614956096
 10
4.100438845964984
 20
3.034666342990639
 10
4.086362410924386
 20
3.034666342990639
 10
4.086362410924386
 20
2.849326614956096
  0
ARC
  5
3AF
330
17
100
AcDbEntity
  8
PAPER
100
AcDbCircle
 10
4.168474948661209
 20
3.473675160819295
 30
0.0
 40
0.4558450613793435
100
AcDbArc
 50
261.4163785198861
 51
278.5836214801141
  0
ARC
  5
3B0
330
17
100
AcDbEntity
  8
PAPER
100
AcDbCircle
 10
4.168474948661209
 20
2.410317797127442
 30
0.0
 40
0.4558450613793435
100
AcDbArc
 50
81.41637851988599
 51
98.583621480114
  0
LINE
  5
3B1
330
17
100
AcDbEntity
  8
PAPER
100
AcDbLine
 10
4.311585371573958
 20
2.769560149726039
 30
0.0
 11
4.236511051357433
 21
2.861056977489928
 31
0.0
  0
LINE
  5
3B2
330
17
100
AcDbEntity
  8
PAPER
100
AcDbLine
 10
4.236511051357433
 20
2.861056977489928
 30
0.0
 11
4.236511051357433
 21
3.022935980456807
 31
0.0
  0
LINE
  5
3B3
330
17
100
AcDbEntity
  8
PAPER
100
AcDbLine
 10
4.236511051357433
 20
3.022935980456807
 30
0.0
 11
4.311585371573958
 21
3.114432808220696
 31
0.0
  0
LINE
  5
3B4
330
17
100
AcDbEntity
  8
PAPER
100
AcDbLine
 10
0.9832003172207999
 20
3.022935980456807
 30
0.0
 11
0.9081259970042761
 21
3.114432808220696
 31
0.0
  0
LINE
  5
3B5
330
17
100
AcDbEntity
  8
PAPER
100
AcDbLine
 10
0.9832003172207999
 20
2.861056977489928
 30
0.0
 11
0.9832003172207999
 21
3.022935980456807
 31
0.0
  0
LINE
  5
3B6
330
17
100
AcDbEntity
  8
PAPER
100
AcDbLine
 10
0.9081259970042761
 20
2.769560149726039
 30
0.0
 11
0.9832003172207999
 21
2.861056977489928
 31
0.0
  0
ARC
  5
3B7
330
17
100
AcDbEntity
  8
PAPER
100
AcDbCircle
 10
1.051236419917024
 20
2.410317797127442
 30
0.0
 40
0.4558450613793435
100
AcDbArc
 50
81.41637851988601
 51
98.58362148011401
  0
ARC
  5
3B8
330
17
100
AcDbEntity
  8
PAPER
100
AcDbCircle
 10
1.051236419917024
 20
3.473675160819293
 30
0.0
 40
0.4558450613793435
100
AcDbArc
 50
261.416378519886
 51
278.583621480114
  0
LWPOLYLINE
  5
3B9
330
17
100
AcDbEntity
  8
PAPER
100
AcDbPolyline
 90
        4
 70
     1
 43
0.0
 10
1.119272522613249
 20
2.849326614956096
 10
1.119272522613249
 20
3.034666342990639
 10
1.133348957653847
 20
3.034666342990639
 10
1.133348957653847
 20
2.849326614956096
  0
LWPOLYLINE
  5
3BF
330
17
100
AcDbEntity
  8
PAPER
100
AcDbPolyline
 90
        4
 70
     1
 43
0.0
 10
0.8940495619636779
 20
2.769560149726039
 10
0.8940495619636779
 20
3.114432808220696
 10
0.9081259970042761
 20
3.114432808220696
 10
0.9081259970042761
 20
2.769560149726039
  0
LINE
  5
3C5
330
17
100
AcDbEntity
  8
PAPER
  6
CENTER
100
AcDbLine
 10
0.2666299866748156
 20
2.941996478973369
 30
0.0
 11
5.011688866180833
 21
2.941996478973369
 31
0.0
  0
LINE
  5
3C6
330
17
100
AcDbEntity
  8
PAPER
100
AcDbLine
 10
0.6688266013141062
 20
2.960765059027499
 30
0.0
 11
0.8940495619636777
 21
2.960765059027499
 31
0.0
  0
LINE
  5
3C7
330
17
100
AcDbEntity
  8
PAPER
100
AcDbLine
 10
0.6688266013141062
 20
2.923227898919236
 30
0.0
 11
0.8940495619636777
 21
2.923227898919236
 31
0.0
  0
LINE
  5
3C8
330
17
100
AcDbEntity
  8
PAPER
100
AcDbLine
 10
0.6688266013141062
 20
2.923227898919236
 30
0.0
 11
0.6688266013141062
 21
2.960765059027499
 31
0.0
  0
LINE
  5
3C9
330
17
100
AcDbEntity
  8
PAPER
100
AcDbLine
 10
4.550884767264127
 20
2.923227898919236
 30
0.0
 11
4.550884767264128
 21
2.960765059027499
 31
0.0
  0
LINE
  5
3CA
330
17
100
AcDbEntity
  8
PAPER
100
AcDbLine
 10
4.325661806614557
 20
2.923227898919236
 30
0.0
 11
4.550884767264128
 21
2.923227898919236
 31
0.0
  0
LINE
  5
3CB
330
17
100
AcDbEntity
  8
PAPER
100
AcDbLine
 10
4.325661806614557
 20
2.960765059027499
 30
0.0
 11
4.550884767264128
 21
2.960765059027499
 31
0.0
  0
LINE
  5
3CC
330
17
100
AcDbEntity
  8
PAPER
100
AcDbLine
 10
2.590414804626906
 20
3.054607959298154
 30
0.0
 11
2.590414804626906
 21
2.829384998648581
 31
0.0
  0
LINE
  5
3CD
330
17
100
AcDbEntity
  8
PAPER
100
AcDbLine
 10
2.597453022147204
 20
2.83480819083754
 30
0.0
 11
2.608010348427654
 21
2.83480819083754
 31
0.0
  0
LINE
  5
3CE
330
17
100
AcDbEntity
  8
PAPER
100
AcDbLine
 10
2.597453022147204
 20
3.049184767109196
 30
0.0
 11
2.608010348427654
 21
3.049184767109196
 31
0.0
  0
LINE
  5
3CF
330
17
100
AcDbEntity
  8
PAPER
100
AcDbLine
 10
2.608010348427654
 20
3.049184767109196
 30
0.0
 11
2.608010348427654
 21
2.83480819083754
 31
0.0
  0
LINE
  5
3D0
330
17
100
AcDbEntity
  8
PAPER
100
AcDbLine
 10
2.608010348427654
 20
2.857988314651077
 30
0.0
 11
3.697284527190068
 21
2.857988314651077
 31
0.0
  0
LINE
  5
3D1
330
17
100
AcDbEntity
  8
PAPER
100
AcDbLine
 10
2.608010348427654
 20
3.026004643295658
 30
0.0
 11
3.697284527190068
 21
3.026004643295658
 31
0.0
  0
LINE
  5
3D2
330
17
100
AcDbEntity
  8
PAPER
100
AcDbLine
 10
3.697284527190068
 20
2.923227898919236
 30
0.0
 11
4.086362410924386
 21
2.923227898919236
 31
0.0
  0
LINE
  5
3D3
330
17
100
AcDbEntity
  8
PAPER
100
AcDbLine
 10
3.697284527190068
 20
2.960765059027499
 30
0.0
 11
4.086362410924386
 21
2.960765059027501
 31
0.0
  0
LINE
  5
3D4
330
17
100
AcDbEntity
  8
PAPER
100
AcDbLine
 10
3.697284527190068
 20
3.026004643295658
 30
0.0
 11
3.697284527190068
 21
2.857988314651077
 31
0.0
  0
LINE
  5
3D5
330
17
100
AcDbEntity
  8
PAPER
100
AcDbLine
 10
3.654739642551443
 20
3.026004643295658
 30
0.0
 11
3.654739642551444
 21
2.857988314651077
 31
0.0
  0
LINE
  5
3D6
330
17
100
AcDbEntity
  8
PAPER
100
AcDbLine
 10
2.608010348427654
 20
2.857988314651077
 30
0.0
 11
2.653682280724002
 21
3.026004643295658
 31
0.0
  0
LINE
  5
3D7
330
17
100
AcDbEntity
  8
PAPER
100
AcDbLine
 10
2.641471766316524
 20
2.857988314651077
 30
0.0
 11
2.687143698612872
 21
3.026004643295658
 31
0.0
  0
LINE
  5
3D8
330
17
100
AcDbEntity
  8
PAPER
100
AcDbLine
 10
2.671970708904487
 20
2.857988314651077
 30
0.0
 11
2.717642641200835
 21
3.026004643295658
 31
0.0
  0
LINE
  5
3D9
330
17
100
AcDbEntity
  8
PAPER
100
AcDbLine
 10
2.702469651492449
 20
2.857988314651077
 30
0.0
 11
2.748141583788798
 21
3.026004643295658
 31
0.0
  0
LINE
  5
3DA
330
17
100
AcDbEntity
  8
PAPER
100
AcDbLine
 10
3.633860436678699
 20
2.857988314651077
 30
0.0
 11
3.654739642551443
 21
2.934798016789153
 31
0.0
  0
LINE
  5
3DB
330
17
100
AcDbEntity
  8
PAPER
100
AcDbLine
 10
3.608053639104269
 20
2.857988314651077
 30
0.0
 11
3.653725571400618
 21
3.026004643295658
 31
0.0
  0
LINE
  5
3DC
330
17
100
AcDbEntity
  8
PAPER
100
AcDbLine
 10
3.584592914036605
 20
2.857988314651077
 30
0.0
 11
3.630264846332954
 21
3.026004643295658
 31
0.0
  0
LINE
  5
3DD
330
17
100
AcDbEntity
  8
PAPER
100
AcDbLine
 10
3.558786116462175
 20
2.857988314651077
 30
0.0
 11
3.604458048758523
 21
3.026004643295658
 31
0.0
  0
LINE
  5
3DE
330
17
100
AcDbEntity
  8
PAPER
100
AcDbLine
 10
2.608010348427654
 20
2.967919170962469
 30
0.0
 11
2.62379974093018
 21
3.026004643295658
 31
0.0
  0
LINE
  5
3DF
330
17
100
AcDbEntity
  8
PAPER
100
AcDbLine
 10
2.579857478346457
 20
3.049184767109196
 30
0.0
 11
2.579857478346457
 21
2.83480819083754
 31
0.0
  0
LINE
  5
3E0
330
17
100
AcDbEntity
  8
PAPER
100
AcDbLine
 10
2.590414804626906
 20
3.049184767109196
 30
0.0
 11
2.579857478346457
 21
3.049184767109196
 31
0.0
  0
LINE
  5
3E1
330
17
100
AcDbEntity
  8
PAPER
100
AcDbLine
 10
2.590414804626906
 20
2.83480819083754
 30
0.0
 11
2.579857478346457
 21
2.83480819083754
 31
0.0
  0
LINE
  5
3E2
330
17
100
AcDbEntity
  8
PAPER
100
AcDbLine
 10
2.579857478346457
 20
2.857988314651077
 30
0.0
 11
1.490583299584043
 21
2.857988314651077
 31
0.0
  0
LINE
  5
3E3
330
17
100
AcDbEntity
  8
PAPER
100
AcDbLine
 10
2.579857478346457
 20
3.026004643295658
 30
0.0
 11
1.490583299584043
 21
3.026004643295658
 31
0.0
  0
LINE
  5
3E4
330
17
100
AcDbEntity
  8
PAPER
100
AcDbLine
 10
1.490583299584043
 20
3.026004643295658
 30
0.0
 11
1.490583299584042
 21
2.857988314651077
 31
0.0
  0
LINE
  5
3E5
330
17
100
AcDbEntity
  8
PAPER
100
AcDbLine
 10
1.533128184222667
 20
3.026004643295658
 30
0.0
 11
1.533128184222666
 21
2.857988314651077
 31
0.0
  0
LINE
  5
3E6
330
17
100
AcDbEntity
  8
PAPER
100
AcDbLine
 10
1.533128184222666
 20
2.967919170962469
 30
0.0
 11
1.548917576725193
 21
3.026004643295658
 31
0.0
  0
LINE
  5
3E7
330
17
100
AcDbEntity
  8
PAPER
100
AcDbLine
 10
2.483903952257188
 20
2.857988314651077
 30
0.0
 11
2.529575884553536
 21
3.026004643295658
 31
0.0
  0
LINE
  5
3E8
330
17
100
AcDbEntity
  8
PAPER
100
AcDbLine
 10
2.509710749831619
 20
2.857988314651077
 30
0.0
 11
2.555382682127966
 21
3.026004643295658
 31
0.0
  0
LINE
  5
3E9
330
17
100
AcDbEntity
  8
PAPER
100
AcDbLine
 10
2.533171474899282
 20
2.857988314651077
 30
0.0
 11
2.57884340719563
 21
3.026004643295658
 31
0.0
  0
LINE
  5
3EA
330
17
100
AcDbEntity
  8
PAPER
100
AcDbLine
 10
1.627587487287462
 20
2.857988314651077
 30
0.0
 11
1.673259419583811
 21
3.026004643295658
 31
0.0
  0
LINE
  5
3EB
330
17
100
AcDbEntity
  8
PAPER
100
AcDbLine
 10
1.5970885446995
 20
2.857988314651077
 30
0.0
 11
1.642760476995848
 21
3.026004643295658
 31
0.0
  0
LINE
  5
3EC
330
17
100
AcDbEntity
  8
PAPER
100
AcDbLine
 10
1.566589602111537
 20
2.857988314651077
 30
0.0
 11
1.612261534407885
 21
3.026004643295658
 31
0.0
  0
LINE
  5
3ED
330
17
100
AcDbEntity
  8
PAPER
100
AcDbLine
 10
1.533128184222666
 20
2.857988314651077
 30
0.0
 11
1.578800116519015
 21
3.026004643295658
 31
0.0
  0
LINE
  5
3EE
330
17
100
AcDbEntity
  8
PAPER
100
AcDbLine
 10
2.558978272473712
 20
2.857988314651077
 30
0.0
 11
2.579857478346456
 21
2.934798016789153
 31
0.0
  0
LWPOLYLINE
  5
3EF
330
17
100
AcDbEntity
  8
PAPER
100
AcDbPolyline
 90
        2
 70
     0
 43
0.0
 10
2.522378701930681
 20
3.026004643295658
 10
2.522378701930681
 20
3.054607959298154
  0
LWPOLYLINE
  5
3F3
330
17
100
AcDbEntity
  8
PAPER
100
AcDbPolyline
 90
        5
 70
     0
 43
0.0
 10
2.522378701930681
 20
3.054607959298154
 10
2.597453022147205
 20
3.054607959298154
 10
2.597453022147205
 20
2.829384998648581
 10
2.522378701930681
 20
2.829384998648581
 10
2.522378701930681
 20
2.857988314651077
  0
LINE
  5
3FA
330
17
100
AcDbEntity
  8
PAPER
100
AcDbLine
 10
6.845664847373186
 20
5.509184903839759
 30
0.0
 11
6.775664847373185
 21
5.509184903839759
 31
0.0
  0
LINE
  5
3FB
330
17
100
AcDbEntity
  8
PAPER
100
AcDbLine
 10
6.85859614140332
 20
6.404688157042691
 30
0.0
 11
6.775664847373186
 21
5.509184903839759
 31
0.0
  0
SOLID
  5
3FC
330
17
100
AcDbEntity
  8
PAPER
100
AcDbTrace
 10
6.846979183935864
 20
6.405763987099169
 30
0.0
 11
6.870213098870775
 21
6.403612326986214
 31
0.0
 12
6.865051121742186
 22
6.474389901847431
 32
0.0
 13
6.865051121742186
 23
6.474389901847431
 33
0.0
  0
LINE
  5
3FD
330
17
100
AcDbEntity
  8
PAPER
100
AcDbLine
 10
6.605263110776393
 20
8.148398380472354
 30
0.0
 11
6.279987345592278
 21
8.148398380472354
 31
0.0
  0
LINE
  5
3FE
330
17
100
AcDbEntity
  8
PAPER
100
AcDbLine
 10
7.795152540642979
 20
7.049335395912796
 30
0.0
 11
6.605263110776393
 21
8.148398380472354
 31
0.0
  0
SOLID
  5
3FF
330
17
100
AcDbEntity
  8
PAPER
100
AcDbTrace
 10
7.803068543982075
 20
7.05790557690543
 30
0.0
 11
7.787236537303881
 21
7.040765214920162
 31
0.0
 12
7.846573626598787
 22
7.001839375878213
 32
0.0
 13
7.846573626598787
 23
7.001839375878213
 33
0.0
  0
LINE
  5
400
330
17
100
AcDbEntity
  8
PAPER
100
AcDbLine
 10
7.949465261880833
 20
6.699746163503084
 30
0.0
 11
7.949465261880831
 21
7.187466992473665
 31
0.0
  0
TEXT
  5
401
330
17
100
AcDbEntity
  8
PAPER
100
AcDbText
 10
10.25548081791832
 20
3.604173457497267
 30
0.0
 40
0.07
  1
DOOR HEIGHT + HI-LIFT"
 50
90.0
  7
arial1
 72
     4
 11
10.22045694342992
 21
4.187928573459068
 31
0.0
100
AcDbText
  0
TEXT
  5
405
330
17
100
AcDbEntity
  8
PAPER
100
AcDbText
 10
0.4134946151107677
 20
8.081758351164165
 30
0.0
 40
0.125
  1
%%uHIGH-LIFT TRACK
  7
ARIALB
 72
     1
 11
1.276898435028912
 21
8.081758351164165
 31
0.0
100
AcDbText
  0
TEXT
  5
406
330
17
100
AcDbEntity
  8
PAPER
100
AcDbText
 10
0.6750500343700459
 20
2.161569813932209
 30
0.0
 40
0.07
  1
(PADS MUST BE FLUSH WITH JAMBS)
  7
arial1
100
AcDbText
  0
TEXT
  5
407
330
17
100
AcDbEntity
  8
PAPER
100
AcDbText
 10
2.819237923487201
 20
3.605966909485728
 30
0.0
 40
0.07
  1
CENTER SUPPORT BRACKET:
  7
arial1
100
AcDbText
  0
LINE
  5
408
330
17
100
AcDbEntity
  8
PAPER
100
AcDbLine
 10
2.679237923487201
 20
3.640966909485728
 30
0.0
 11
2.749237923487201
 21
3.640966909485728
 31
0.0
  0
LINE
  5
409
330
17
100
AcDbEntity
  8
PAPER
100
AcDbLine
 10
2.572161594711753
 20
3.141277375200308
 30
0.0
 11
2.679237923487201
 21
3.640966909485728
 31
0.0
  0
SOLID
  5
40A
330
17
100
AcDbEntity
  8
PAPER
100
AcDbTrace
 10
2.583569289542657
 20
3.138832869165115
 30
0.0
 11
2.560753899880851
 21
3.143721881235501
 31
0.0
 12
2.557494558500593
 22
3.072831206214889
 32
0.0
 13
2.557494558500593
 23
3.072831206214889
 33
0.0
  0
TEXT
  5
40B
330
17
100
AcDbEntity
  8
PAPER
100
AcDbText
 10
3.208830058800143
 20
3.335215254683557
 30
0.0
 40
0.07
  1
CABLE DRUM:
  7
arial1
100
AcDbText
  0
LINE
  5
40C
330
17
100
AcDbEntity
  8
PAPER
100
AcDbLine
 10
4.02549672546681
 20
3.370215254683557
 30
0.0
 11
3.95549672546681
 21
3.370215254683557
 31
0.0
  0
LINE
  5
40D
330
17
100
AcDbEntity
  8
PAPER
100
AcDbLine
 10
4.133844054084409
 20
3.110181666001318
 30
0.0
 11
4.02549672546681
 21
3.370215254683557
 31
0.0
  0
SOLID
  5
40E
330
17
100
AcDbEntity
  8
PAPER
100
AcDbTrace
 10
4.144613284853639
 20
3.114668845488498
 30
0.0
 11
4.123074823315178
 21
3.105694486514138
 31
0.0
 12
4.160767131007486
 22
3.045566281385934
 32
0.0
 13
4.160767131007486
 23
3.045566281385934
 33
0.0
  0
TEXT
  5
40F
330
17
100
AcDbEntity
  8
PAPER
100
AcDbText
 10
1.57517454831283
 20
3.342084196821001
 30
0.0
 40
0.07
  1
1" O.D. SHAFT:
  7
arial1
100
AcDbText
  0
LINE
  5
410
330
17
100
AcDbEntity
  8
PAPER
100
AcDbLine
 10
1.435174548312829
 20
3.377084196821002
 30
0.0
 11
1.50517454831283
 21
3.377084196821002
 31
0.0
  0
LINE
  5
411
330
17
100
AcDbEntity
  8
PAPER
100
AcDbLine
 10
1.287155541744352
 20
3.03550187397067
 30
0.0
 11
1.435174548312829
 21
3.377084196821002
 31
0.0
  0
SOLID
  5
412
330
17
100
AcDbEntity
  8
PAPER
100
AcDbTrace
 10
1.297860357372968
 20
3.030863120531602
 30
0.0
 11
1.276450726115736
 21
3.040140627409735
 31
0.0
 12
1.259323021109951
 22
2.971272980198975
 32
0.0
 13
1.259323021109951
 23
2.971272980198975
 33
0.0
  0
TEXT
  5
413
330
17
100
AcDbEntity
  8
PAPER
100
AcDbText
 10
3.150544328111895
 20
2.503829369910453
 30
0.0
 40
0.07
  1
%%uTORSION SPRINGS:
  7
ARIAL2
100
AcDbText
  0
LINE
  5
414
330
17
100
AcDbEntity
  8
PAPER
100
AcDbLine
 10
3.010544328111895
 20
2.538829369910454
 30
0.0
 11
3.080544328111895
 21
2.538829369910454
 31
0.0
  0
LINE
  5
415
330
17
100
AcDbEntity
  8
PAPER
100
AcDbLine
 10
2.912511325904379
 20
2.811143264931335
 30
0.0
 11
3.010544328111896
 21
2.538829369910454
 31
0.0
  0
SOLID
  5
416
330
17
100
AcDbEntity
  8
PAPER
100
AcDbTrace
 10
2.901534306099244
 20
2.807191537801486
 30
0.0
 11
2.923488345709514
 21
2.815094992061183
 31
0.0
 12
2.888800963125287
 22
2.877005383762146
 32
0.0
 13
2.888800963125287
 23
2.877005383762146
 33
0.0
  0
LINE
  5
417
330
17
100
AcDbEntity
  8
PAPER
100
AcDbLine
 10
2.298523612952001
 20
2.312846180621449
 30
0.0
 11
2.228523612952001
 21
2.312846180621449
 31
0.0
  0
LINE
  5
418
330
17
100
AcDbEntity
  8
PAPER
100
AcDbLine
 10
2.438861467061264
 20
2.678487609277855
 30
0.0
 11
2.298523612952001
 21
2.312846180621449
 31
0.0
  0
SOLID
  5
419
330
17
100
AcDbEntity
  8
PAPER
100
AcDbTrace
 10
2.427969508661561
 20
2.682668082137503
 30
0.0
 11
2.449753425460966
 21
2.674307136418205
 31
0.0
 12
2.463944304219161
 22
2.743839359676067
 32
0.0
 13
2.463944304219161
 23
2.743839359676067
 33
0.0
  0
INSERT
  5
41A
330
17
100
AcDbEntity
  8
PAPER
100
AcDbBlockReference
  2
RECT
 10
0.693289683455723
 20
1.739334992571292
 30
0.0
 41
0.09375
 42
0.09375
 43
0.09375
  0
INSERT
  5
41B
330
17
100
AcDbEntity
  8
PAPER
100
AcDbBlockReference
  2
RECT
 10
0.693289683455723
 20
2.009588126038063
 30
0.0
 41
0.09375
 42
0.09375
 43
0.09375
  0
TEXT
  5
41C
330
17
100
AcDbEntity
  8
PAPER
100
AcDbText
 10
0.8388124347785408
 20
1.750610636459865
 30
0.0
 40
0.07
  1
WOOD - 2" x 6" LUMBER x 12"
  7
arial1
100
AcDbText
  0
TEXT
  5
41D
330
17
100
AcDbEntity
  8
PAPER
100
AcDbText
 10
0.8388124347785408
 20
2.021352028984629
 30
0.0
 40
0.07
  1
STEEL - 10"W x 12"H x 1/4"
  7
arial1
100
AcDbText
  0
TEXT
  5
41E
330
17
100
AcDbEntity
  8
PAPER
100
AcDbText
 10
0.6750500343700459
 20
2.278236480598876
 30
0.0
 40
0.07
  1
%%uSPRING PAD - BY OTHERS:
  7
ARIAL2
100
AcDbText
  0
LINE
  5
41F
330
17
100
AcDbEntity
  8
PAPER
100
AcDbLine
 10
4.261851312454608
 20
3.208456722259317
 30
0.0
 11
4.704738245704822
 21
3.208456722259317
 31
0.0
  0
LINE
  5
420
330
17
100
AcDbEntity
  8
PAPER
100
AcDbLine
 10
4.261851312454608
 20
3.05381942366899
 30
0.0
 11
4.261851312454608
 21
3.208456722259317
 31
0.0
  0
LINE
  5
421
330
17
100
AcDbEntity
  8
PAPER
100
AcDbLine
 10
4.261851312454608
 20
2.525302329356386
 30
0.0
 11
4.261851312454608
 21
2.830173534277745
 31
0.0
  0
CIRCLE
  5
422
330
17
100
AcDbEntity
  8
PAPER
100
AcDbCircle
 10
4.342549939025604
 20
2.878361578230878
 30
0.0
 40
0.0082700277068097
  0
CIRCLE
  5
423
330
17
100
AcDbEntity
  8
PAPER
100
AcDbCircle
 10
4.342549939025604
 20
3.007374010457128
 30
0.0
 40
0.0082700277068097
  0
LWPOLYLINE
  5
424
330
17
100
AcDbEntity
  8
PAPER
100
AcDbPolyline
 90
        3
 70
     0
 43
0.0
 10
4.326011660181804
 20
3.037146110201648
 10
4.364049701522544
 20
3.037146110201648
 10
4.364049701522544
 20
2.96096450640331
  0
LWPOLYLINE
  5
429
330
17
100
AcDbEntity
  8
PAPER
100
AcDbPolyline
 90
        3
 70
     0
 43
0.0
 10
4.364049701522544
 20
2.923464506403309
 10
4.364049701522544
 20
2.850243484027721
 10
4.326011660181804
 20
2.850243484027721
  0
LWPOLYLINE
  5
42E
330
17
100
AcDbEntity
  8
PAPER
100
AcDbPolyline
 90
        3
 70
     0
 43
0.0
 10
0.8522357748256887
 20
2.923464506403309
 10
0.8522357748256885
 20
2.850243484027721
 10
0.8902738161664284
 20
2.850243484027721
  0
LWPOLYLINE
  5
433
330
17
100
AcDbEntity
  8
PAPER
100
AcDbPolyline
 90
        3
 70
     0
 43
0.0
 10
0.8902738161664284
 20
3.037146110201648
 10
0.8522357748256885
 20
3.037146110201648
 10
0.8522357748256887
 20
2.96096450640331
  0
CIRCLE
  5
438
330
17
100
AcDbEntity
  8
PAPER
100
AcDbCircle
 10
0.8737355373226284
 20
3.007374010457128
 30
0.0
 40
0.0082700277068097
  0
CIRCLE
  5
439
330
17
100
AcDbEntity
  8
PAPER
100
AcDbCircle
 10
0.8737355373226284
 20
2.878361578230878
 30
0.0
 40
0.0082700277068097
  0
LINE
  5
43A
330
17
100
AcDbEntity
  8
PAPER
100
AcDbLine
 10
0.954434163893624
 20
3.057994729824303
 30
0.0
 11
0.954434163893624
 21
3.208456722259317
 31
0.0
  0
LINE
  5
43B
330
17
100
AcDbEntity
  8
PAPER
100
AcDbLine
 10
0.954434163893624
 20
3.208456722259317
 30
0.0
 11
0.5115472306434108
 21
3.208456722259317
 31
0.0
  0
LINE
  5
43C
330
17
100
AcDbEntity
  8
PAPER
100
AcDbLine
 10
0.954434163893624
 20
2.457667126586048
 30
0.0
 11
0.954434163893624
 21
2.825998228122433
 31
0.0
  0
LWPOLYLINE
  5
43D
330
17
100
AcDbEntity
  8
PAPER
100
AcDbPolyline
 90
        2
 70
     0
 43
0.0
 10
2.809915862038943
 20
3.026139506403309
 10
2.809915862038943
 20
3.191676550053491
  0
LWPOLYLINE
  5
441
330
17
100
AcDbEntity
  8
PAPER
100
AcDbPolyline
 90
        4
 70
     0
 43
0.0
 10
2.309915862038943
 20
2.858289506403309
 10
2.309915862038943
 20
2.691676550053491
 10
2.809915862038943
 20
2.691676550053491
 10
2.809915862038943
 20
2.858289506403311
  0
LWPOLYLINE
  5
447
330
17
100
AcDbEntity
  8
PAPER
100
AcDbPolyline
 90
        3
 70
     0
 43
0.0
 10
2.809915862038943
 20
3.191676550053491
 10
2.309915862038943
 20
3.191676550053491
 10
2.309915862038943
 20
3.02613950640331
  0
TEXT
  5
44C
330
17
100
AcDbEntity
  8
PAPER
100
AcDbText
 10
4.829823079471436
 20
6.924784619712929
 30
0.0
 40
0.07
  1
(SUPPLIED BY INSTALLER)
  7
arial1
100
AcDbText
  0
TEXT
  5
44D
330
17
100
AcDbEntity
  8
PAPER
100
AcDbText
 10
4.829823079471436
 20
7.041451286379595
 30
0.0
 40
0.07
  1
%%UREAR HANGER:
  7
ARIAL2
100
AcDbText
  0
LINE
  5
44E
330
17
100
AcDbEntity
  8
PAPER
100
AcDbLine
 10
6.122476138744628
 20
7.076451286379596
 30
0.0
 11
5.688868385654919
 21
7.076451286379596
 31
0.0
  0
TEXT
  5
44F
330
17
100
AcDbEntity
  8
PAPER
100
AcDbText
 10
7.130732935077798
 20
4.73450957752237
 30
0.0
 40
0.07
  1
DOOR HEIGHT + 38" - HI-LIFT (3" TRACK)
  7
arial1
 72
     4
 11
8.082322293877252
 21
4.759840409718822
 31
0.0
100
AcDbText
  0
TEXT
  5
450
330
17
100
AcDbEntity
  8
PAPER
100
AcDbText
 10
7.130732935077798
 20
4.851176244189037
 30
0.0
 40
0.07
  1
DOOR HEIGHT + 35" - HI-LIFT (2" TRACK)
  7
arial1
 72
     4
 11
8.082322293877252
 21
4.87650707638549
 31
0.0
100
AcDbText
  0
TEXT
  5
452
330
17
100
AcDbEntity
  8
PAPER
100
AcDbText
 10
7.337128226089361
 20
7.968580536167095
 30
0.0
 40
0.07
  1
13 GA. MIN.
  7
arial1
100
AcDbText
  0
TEXT
  5
453
330
17
100
AcDbEntity
  8
PAPER
100
AcDbText
 10
7.337128226089361
 20
8.07629146788882
 30
0.0
 40
0.07
  1
%%UHORIZONTAL ANGLE:
  7
ARIAL2
100
AcDbText
  0
LINE
  5
454
330
17
100
AcDbEntity
  8
PAPER
100
AcDbLine
 10
8.522063192319917
 20
8.11129146788882
 30
0.0
 11
8.422212001931431
 21
8.11129146788882
 31
0.0
  0
LINE
  5
455
330
17
100
AcDbEntity
  8
PAPER
100
AcDbLine
 10
9.189528231069967
 20
6.78152179495849
 30
0.0
 11
8.522063192319915
 21
8.11129146788882
 31
0.0
  0
SOLID
  5
456
330
17
100
AcDbEntity
  8
PAPER
100
AcDbTrace
 10
9.199955109746221
 20
6.786755465962845
 30
0.0
 11
9.179101352393718
 21
6.776288123954135
 31
0.0
 12
9.220930257096101
 22
6.718960522900977
 32
0.0
 13
9.220930257096101
 23
6.718960522900977
 33
0.0
  0
TEXT
  5
457
330
17
100
AcDbEntity
  8
PAPER
100
AcDbText
 10
7.990962782675785
 20
2.786565107910389
 30
0.0
 40
0.07
  1
16 GA. MIN. 
  7
arial1
100
AcDbText
  0
TEXT
  5
458
330
17
100
AcDbEntity
  8
PAPER
100
AcDbText
 10
7.990962782675785
 20
2.68834133489077
 30
0.0
 40
0.07
  1
2" TRACK
  7
arial1
100
AcDbText
  0
TEXT
  5
459
330
17
100
AcDbEntity
  8
PAPER
100
AcDbText
 10
7.990962782675785
 20
2.553231774577056
 30
0.0
 40
0.07
  1
12 GA.
  7
arial1
100
AcDbText
  0
TEXT
  5
45A
330
17
100
AcDbEntity
  8
PAPER
100
AcDbText
 10
7.990962782675785
 20
2.455008001557438
 30
0.0
 40
0.07
  1
3" TRACK
  7
arial1
100
AcDbText
  0
INSERT
  5
45B
330
17
100
AcDbEntity
  8
PAPER
100
AcDbBlockReference
  2
RECT
 10
7.831296605300918
 20
2.729406461855756
 30
0.0
 41
0.09375
 42
0.09375
 43
0.09375
  0
INSERT
  5
45C
330
17
100
AcDbEntity
  8
PAPER
100
AcDbBlockReference
  2
RECT
 10
7.831296605300918
 20
2.495210986972615
 30
0.0
 41
0.09375
 42
0.09375
 43
0.09375
  0
TEXT
  5
45D
330
17
100
AcDbEntity
  8
PAPER
100
AcDbText
 10
8.138355018588349
 20
5.637100098196445
 30
0.0
 40
0.07
  1
15" R.
  7
arial1
100
AcDbText
  0
INSERT
  5
45E
330
17
100
AcDbEntity
  8
PAPER
100
AcDbBlockReference
  2
RECT
 10
7.058127663547983
 20
5.722026245550022
 30
0.0
 41
0.09375
 42
0.09375
 43
0.09375
  0
INSERT
  5
45F
330
17
100
AcDbEntity
  8
PAPER
100
AcDbBlockReference
  2
RECT
 10
7.058127663547983
 20
5.956221720433163
 30
0.0
 41
0.09375
 42
0.09375
 43
0.09375
  0
TEXT
  5
460
330
17
100
AcDbEntity
  8
PAPER
100
AcDbText
 10
7.217793840922851
 20
5.681823260134844
 30
0.0
 40
0.07
  1
3" TRACK
  7
arial1
100
AcDbText
  0
TEXT
  5
461
330
17
100
AcDbEntity
  8
PAPER
100
AcDbText
 10
7.217793840922851
 20
5.780047033154463
 30
0.0
 40
0.07
  1
12 GA.
  7
arial1
100
AcDbText
  0
TEXT
  5
462
330
17
100
AcDbEntity
  8
PAPER
100
AcDbText
 10
7.217793840922851
 20
5.915156593468177
 30
0.0
 40
0.07
  1
2" TRACK
  7
arial1
100
AcDbText
  0
TEXT
  5
463
330
17
100
AcDbEntity
  8
PAPER
100
AcDbText
 10
7.217793840922851
 20
6.013380366487796
 30
0.0
 40
0.07
  1
14 GA. MIN. 
  7
arial1
100
AcDbText
  0
LINE
  5
464
330
17
100
AcDbEntity
  8
PAPER
100
AcDbLine
 10
8.860211964600329
 20
2.965977419677297
 30
0.0
 11
8.790211964600329
 21
2.965977419677297
 31
0.0
  0
LINE
  5
465
330
17
100
AcDbEntity
  8
PAPER
100
AcDbLine
 10
9.336829143851238
 20
3.220507726982983
 30
0.0
 11
8.860211964600329
 21
2.965977419677297
 31
0.0
  0
SOLID
  5
466
330
17
100
AcDbEntity
  8
PAPER
100
AcDbTrace
 10
9.331333325883475
 20
3.230798844316701
 30
0.0
 11
9.342324961818997
 21
3.210216609649265
 31
0.0
 12
9.398575847853544
 22
3.253482634789545
 32
0.0
 13
9.398575847853544
 23
3.253482634789545
 33
0.0
  0
LINE
  5
467
330
17
100
AcDbEntity
  8
PAPER
100
AcDbLine
 10
8.290014272355019
 20
6.19491113395659
 30
0.0
 11
8.177631589707509
 21
6.19491113395659
 31
0.0
  0
LINE
  5
468
330
17
100
AcDbEntity
  8
PAPER
100
AcDbLine
 10
8.448609632728146
 20
6.540155244656415
 30
0.0
 11
8.290014272355019
 21
6.19491113395659
 31
0.0
  0
SOLID
  5
469
330
17
100
AcDbEntity
  8
PAPER
100
AcDbTrace
 10
8.438008049786176
 20
6.545025311415263
 30
0.0
 11
8.459211215670116
 21
6.535285177897566
 31
0.0
 12
8.477830033281236
 22
6.603764742308235
 32
0.0
 13
8.477830033281236
 23
6.603764742308235
 33
0.0
  0
LINE
  5
46A
330
17
100
AcDbEntity
  8
PAPER
100
AcDbLine
 10
8.730604985602203
 20
5.804878074184664
 30
0.0
 11
8.55579457231448
 21
5.804878074184664
 31
0.0
  0
LINE
  5
46B
330
17
100
AcDbEntity
  8
PAPER
100
AcDbLine
 10
8.988060574267825
 20
6.305890277003762
 30
0.0
 11
8.730604985602203
 21
5.804878074184664
 31
0.0
  0
SOLID
  5
46C
330
17
100
AcDbEntity
  8
PAPER
100
AcDbTrace
 10
8.97768379976768
 20
6.311222599395019
 30
0.0
 11
8.998437348767966
 21
6.300557954612507
 31
0.0
 12
9.020054508615361
 22
6.368150924004622
 32
0.0
 13
9.020054508615361
 23
6.368150924004622
 33
0.0
  0
TEXT
  5
46D
330
17
100
AcDbEntity
  8
PAPER
100
AcDbText
 10
4.997793463456809
 20
7.455553795425385
 30
0.0
 40
0.07
  1
  LENGTH OVER 13'0")
  7
arial1
100
AcDbText
  0
TEXT
  5
46E
330
17
100
AcDbEntity
  8
PAPER
100
AcDbText
 10
4.997793463456809
 20
7.545628978072746
 30
0.0
 40
0.07
  1
  YES - (HORIZONTAL TRACK
  7
arial1
100
AcDbText
  0
INSERT
  5
46F
330
17
100
AcDbEntity
  8
PAPER
100
AcDbBlockReference
  2
RECT
 10
4.898769357740327
 20
7.522347358776827
 30
0.0
 41
0.09375
 42
0.09375
 43
0.09375
  0
TEXT
  5
470
330
17
100
AcDbEntity
  8
PAPER
100
AcDbText
 10
5.0478178091655
 20
7.779824452955886
 30
0.0
 40
0.07
  1
NO - (HORIZONTAL TRACK
  7
arial1
100
AcDbText
  0
INSERT
  5
471
330
17
100
AcDbEntity
  8
PAPER
100
AcDbBlockReference
  2
RECT
 10
4.898769357740327
 20
7.756542833659968
 30
0.0
 41
0.09375
 42
0.09375
 43
0.09375
  0
TEXT
  5
472
330
17
100
AcDbEntity
  8
PAPER
100
AcDbText
 10
5.0478178091655
 20
7.689749270308525
 30
0.0
 40
0.07
  1
LENGTH UP TO 13'0")
  7
arial1
100
AcDbText
  0
TEXT
  5
473
330
17
100
AcDbEntity
  8
PAPER
100
AcDbText
 10
8.122773678776615
 20
5.77741521222414
 30
0.0
 40
0.07
  1
%%URADIUS:
  7
ARIAL2
100
AcDbText
  0
TEXT
  5
474
330
17
100
AcDbEntity
  8
PAPER
100
AcDbText
 10
7.039888014462307
 20
6.162652894459879
 30
0.0
 40
0.07
  1
%%uHORIZONTAL TRACK:
  7
ARIAL2
100
AcDbText
  0
TEXT
  5
475
330
17
100
AcDbEntity
  8
PAPER
100
AcDbText
 10
7.813056956215244
 20
2.935837635882472
 30
0.0
 40
0.07
  1
%%uVERTICAL TRACK:
  7
ARIAL2
100
AcDbText
  0
TEXT
  5
476
330
17
100
AcDbEntity
  8
PAPER
100
AcDbText
 10
4.826920790465373
 20
7.983569002931187
 30
0.0
 40
0.07
  1
%%uTRACK SUPPORT: (BY INSTALLER)
  7
ARIAL2
100
AcDbText
  0
TEXT
  5
477
330
17
100
AcDbEntity
  8
PAPER
100
AcDbText
 10
4.826920790465373
 20
8.110740092940115
 30
0.0
 40
0.07
  1
INTERMEDIATE HORIZONTAL
  7
ARIAL2
100
AcDbText
  0
POINT
  5
478
330
17
100
AcDbEntity
  8
PAPER
100
AcDbPoint
 10
9.567167321629879
 20
1.890278618561146
 30
0.0
  0
POINT
  5
479
330
17
100
AcDbEntity
  8
PAPER
100
AcDbPoint
 10
9.568223413214438
 20
1.924287606606693
 30
0.0
  0
POINT
  5
47A
330
17
100
AcDbEntity
  8
PAPER
100
AcDbPoint
 10
9.572553388711105
 20
2.784968487299773
 30
0.0
  0
POINT
  5
47B
330
17
100
AcDbEntity
  8
PAPER
100
AcDbPoint
 10
9.573609480295663
 20
2.832813430109195
 30
0.0
  0
POINT
  5
47C
330
17
100
AcDbEntity
  8
PAPER
100
AcDbPoint
 10
9.568141273283041
 20
3.685629005563151
 30
0.0
  0
POINT
  5
47D
330
17
100
AcDbEntity
  8
PAPER
100
AcDbPoint
 10
9.571380834218659
 20
3.729829562414252
 30
0.0
  0
POINT
  5
47E
330
17
100
AcDbEntity
  8
PAPER
100
AcDbPoint
 10
9.578631280122193
 20
4.318476070844885
 30
0.0
  0
POINT
  5
47F
330
17
100
AcDbEntity
  8
PAPER
100
AcDbPoint
 10
9.576780102444692
 20
4.373321787984731
 30
0.0
  0
POINT
  5
480
330
17
100
AcDbEntity
  8
PAPER
100
AcDbPoint
 10
9.581605664613315
 20
5.125423003220446
 30
0.0
  0
POINT
  5
481
330
17
100
AcDbEntity
  8
PAPER
100
AcDbPoint
 10
9.581605664613315
 20
5.181661123263274
 30
0.0
  0
POINT
  5
482
330
17
100
AcDbEntity
  8
PAPER
100
AcDbPoint
 10
9.381750531049616
 20
5.852824626158851
 30
0.0
  0
POINT
  5
483
330
17
100
AcDbEntity
  8
PAPER
100
AcDbPoint
 10
9.580927206201296
 20
5.824705566137438
 30
0.0
  0
POINT
  5
484
330
17
100
AcDbEntity
  8
PAPER
100
AcDbPoint
 10
9.580927206201296
 20
5.880943686180265
 30
0.0
  0
POINT
  5
485
330
17
100
AcDbEntity
  8
PAPER
100
AcDbPoint
 10
9.20232045970207
 20
6.097328593896577
 30
0.0
  0
POINT
  5
486
330
17
100
AcDbEntity
  8
PAPER
100
AcDbPoint
 10
9.580927206201296
 20
6.101550226271819
 30
0.0
  0
POINT
  5
487
330
17
100
AcDbEntity
  8
PAPER
100
AcDbPoint
 10
6.690382188725355
 20
6.66088393469315
 30
0.0
  0
POINT
  5
488
330
17
100
AcDbEntity
  8
PAPER
100
AcDbPoint
 10
6.835309411929414
 20
6.671422559239126
 30
0.0
  0
POINT
  5
489
330
17
100
AcDbEntity
  8
PAPER
100
AcDbPoint
 10
6.885517096241742
 20
6.671422559239126
 30
0.0
  0
POINT
  5
48A
330
17
100
AcDbEntity
  8
PAPER
100
AcDbPoint
 10
8.567868778083889
 20
6.66088393469315
 30
0.0
  0
POINT
  5
48B
330
17
100
AcDbEntity
  8
PAPER
100
AcDbPoint
 10
9.569912897762639
 20
6.66088393469315
 30
0.0
  0
POINT
  5
48C
330
17
100
AcDbEntity
  8
PAPER
100
AcDbPoint
 10
7.111424019712919
 20
7.22376328335061
 30
0.0
  0
POINT
  5
48D
330
17
100
AcDbEntity
  8
PAPER
100
AcDbPoint
 10
7.801674200678998
 20
7.22376328335061
 30
0.0
  0
POINT
  5
48E
330
17
100
AcDbEntity
  8
PAPER
100
AcDbPoint
 10
8.483064202060548
 20
7.22376328335061
 30
0.0
  0
POINT
  5
48F
330
17
100
AcDbEntity
  8
PAPER
100
AcDbPoint
 10
9.176478732878249
 20
7.22376328335061
 30
0.0
  0
POINT
  5
490
330
17
100
AcDbEntity
  8
PAPER
100
AcDbPoint
 10
6.776424848755055
 20
7.602251121240976
 30
0.0
  0
POINT
  5
491
330
17
100
AcDbEntity
  8
PAPER
100
AcDbPoint
 10
7.441782144221741
 20
7.602251121240976
 30
0.0
  0
POINT
  5
492
330
17
100
AcDbEntity
  8
PAPER
100
AcDbPoint
 10
8.134985718382663
 20
7.602251121240976
 30
0.0
  0
POINT
  5
493
330
17
100
AcDbEntity
  8
PAPER
100
AcDbPoint
 10
8.821649636183584
 20
7.602251121240976
 30
0.0
  0
POINT
  5
494
330
17
100
AcDbEntity
  8
PAPER
100
AcDbPoint
 10
9.492491804726411
 20
7.602251121240976
 30
0.0
  0
LINE
  5
495
330
17
100
AcDbEntity
  8
PAPER
100
AcDbLine
 10
9.236761577091856
 20
7.262451152530769
 30
0.0
 11
9.536698217320216
 21
7.562387792759183
 31
0.0
  0
LINE
  5
496
330
17
100
AcDbEntity
  8
PAPER
100
AcDbLine
 10
9.604359756219141
 20
7.637371952816288
 30
0.0
 11
9.604359756219141
 21
7.884693557782757
 31
0.0
  0
LINE
  5
497
330
17
100
AcDbEntity
  8
PAPER
100
AcDbLine
 10
9.668964435197905
 20
7.637371952816288
 30
0.0
 11
9.604359756219141
 21
7.701976631795001
 31
0.0
  0
LINE
  5
498
330
17
100
AcDbEntity
  8
PAPER
100
AcDbLine
 10
9.904296396447557
 20
7.083909143218868
 30
0.0
 11
9.604359756219141
 21
7.383845783447283
 31
0.0
  0
LINE
  5
499
330
17
100
AcDbEntity
  8
PAPER
100
AcDbLine
 10
9.904296396447557
 20
7.242974567392693
 30
0.0
 11
9.604359756219141
 21
7.542911207621108
 31
0.0
  0
LINE
  5
49A
330
17
100
AcDbEntity
  8
PAPER
100
AcDbLine
 10
9.904296396447557
 20
7.402039991566586
 30
0.0
 11
9.717888124016463
 21
7.588448263997681
 31
0.0
  0
LINE
  5
49B
330
17
100
AcDbEntity
  8
PAPER
100
AcDbLine
 10
9.904296396447557
 20
7.561105415740479
 30
0.0
 11
9.604359756219141
 21
7.861042055968893
 31
0.0
  0
LINE
  5
49C
330
17
100
AcDbEntity
  8
PAPER
100
AcDbLine
 10
9.904296396447557
 20
7.720170839914304
 30
0.0
 11
9.739773678579163
 21
7.884693557782757
 31
0.0
  0
LINE
  5
49D
330
17
100
AcDbEntity
  8
PAPER
100
AcDbLine
 10
9.236008707218958
 20
6.073475151419875
 30
0.0
 11
9.151485036134785
 21
6.073475151419875
 31
0.0
  0
LINE
  5
49E
330
17
100
AcDbEntity
  8
PAPER
100
AcDbLine
 10
9.357315232858352
 20
7.262451152530769
 30
0.0
 11
9.357315232858352
 21
7.187466992473666
 31
0.0
  0
LINE
  5
49F
330
17
100
AcDbEntity
  8
PAPER
100
AcDbLine
 10
9.717888124016463
 20
7.562387792759183
 30
0.0
 11
9.717888124016463
 21
7.637371952816288
 31
0.0
  0
LINE
  5
4A0
330
17
100
AcDbEntity
  8
PAPER
100
AcDbLine
 10
6.688983469596355
 20
7.562387792759183
 30
0.0
 11
9.717888124016463
 21
7.562387792759183
 31
0.0
  0
LINE
  5
4A1
330
17
100
AcDbEntity
  8
PAPER
100
AcDbLine
 10
6.647530331465849
 20
7.637371952816288
 30
0.0
 11
9.717888124016463
 21
7.637371952816288
 31
0.0
  0
LINE
  5
4A2
330
17
100
AcDbEntity
  8
PAPER
100
AcDbLine
 10
7.135718968538049
 20
7.262451152530769
 30
0.0
 11
6.835782328309635
 21
7.562387792759183
 31
0.0
  0
LINE
  5
4A3
330
17
100
AcDbEntity
  8
PAPER
100
AcDbLine
 10
7.029675352422137
 20
7.262451152530769
 30
0.0
 11
6.729738712193724
 21
7.562387792759183
 31
0.0
  0
LINE
  5
4A4
330
17
100
AcDbEntity
  8
PAPER
100
AcDbLine
 10
7.179643672536345
 20
7.262451152530769
 30
0.0
 11
7.448520856705951
 21
7.531328336700359
 31
0.0
  0
LINE
  5
4A5
330
17
100
AcDbEntity
  8
PAPER
100
AcDbLine
 10
7.104659512479241
 20
7.293510608589526
 30
0.0
 11
7.373536696648847
 21
7.562387792759183
 31
0.0
  0
LINE
  5
4A6
330
17
100
AcDbEntity
  8
PAPER
100
AcDbLine
 10
7.823441656991469
 20
7.262451152530769
 30
0.0
 11
7.523505016763055
 21
7.562387792759183
 31
0.0
  0
LINE
  5
4A7
330
17
100
AcDbEntity
  8
PAPER
100
AcDbLine
 10
7.717398040875557
 20
7.262451152530769
 30
0.0
 11
7.417461400647143
 21
7.562387792759183
 31
0.0
  0
LINE
  5
4A8
330
17
100
AcDbEntity
  8
PAPER
100
AcDbLine
 10
7.867366360989764
 20
7.262451152530769
 30
0.0
 11
8.136243545159372
 21
7.531328336700359
 31
0.0
  0
LINE
  5
4A9
330
17
100
AcDbEntity
  8
PAPER
100
AcDbLine
 10
7.792382200932661
 20
7.293510608589526
 30
0.0
 11
8.061259385102266
 21
7.562387792759183
 31
0.0
  0
LINE
  5
4AA
330
17
100
AcDbEntity
  8
PAPER
100
AcDbLine
 10
8.511164345444887
 20
7.262451152530769
 30
0.0
 11
8.211227705216474
 21
7.562387792759183
 31
0.0
  0
LINE
  5
4AB
330
17
100
AcDbEntity
  8
PAPER
100
AcDbLine
 10
8.405120729328976
 20
7.262451152530769
 30
0.0
 11
8.105184089100562
 21
7.562387792759183
 31
0.0
  0
LINE
  5
4AC
330
17
100
AcDbEntity
  8
PAPER
100
AcDbLine
 10
8.555089049443184
 20
7.262451152530769
 30
0.0
 11
8.823966233612798
 21
7.531328336700359
 31
0.0
  0
LINE
  5
4AD
330
17
100
AcDbEntity
  8
PAPER
100
AcDbLine
 10
8.480104889386078
 20
7.293510608589526
 30
0.0
 11
8.748982073555696
 21
7.562387792759183
 31
0.0
  0
LINE
  5
4AE
330
17
100
AcDbEntity
  8
PAPER
100
AcDbLine
 10
9.198887033898314
 20
7.262451152530769
 30
0.0
 11
8.898950393669901
 21
7.562387792759183
 31
0.0
  0
LINE
  5
4AF
330
17
100
AcDbEntity
  8
PAPER
100
AcDbLine
 10
9.092843417782406
 20
7.262451152530769
 30
0.0
 11
8.792906777553989
 21
7.562387792759183
 31
0.0
  0
LINE
  5
4B0
330
17
100
AcDbEntity
  8
PAPER
100
AcDbLine
 10
9.167827577839508
 20
7.293510608589526
 30
0.0
 11
9.436704762009112
 21
7.562387792759183
 31
0.0
  0
LINE
  5
4B1
330
17
100
AcDbEntity
  8
PAPER
100
AcDbLine
 10
9.357315232858352
 20
7.262451152530769
 30
0.0
 11
6.623933258927756
 21
7.262451152530769
 31
0.0
  0
LINE
  5
4B2
330
17
100
AcDbEntity
  8
PAPER
100
AcDbLine
 10
9.357315232858352
 20
7.187466992473666
 30
0.0
 11
6.567583800759341
 21
7.187466992473666
 31
0.0
  0
CIRCLE
  5
4B3
330
17
100
AcDbEntity
  8
PAPER
100
AcDbCircle
 10
9.409308432938304
 20
6.877458393769259
 30
0.0
 40
0.1031032200785174
  0
CIRCLE
  5
4B4
330
17
100
AcDbEntity
  8
PAPER
100
AcDbCircle
 10
9.409308432938304
 20
6.877458393769259
 30
0.0
 40
0.1218492600927932
  0
CIRCLE
  5
4B5
330
17
100
AcDbEntity
  8
PAPER
100
AcDbCircle
 10
9.409308432938304
 20
6.877458393769259
 30
0.0
 40
0.1405953001070691
  0
CIRCLE
  5
4B6
330
17
100
AcDbEntity
  8
PAPER
100
AcDbCircle
 10
9.409308432938304
 20
6.877458393769259
 30
0.0
 40
0.0187460400142759
  0
LINE
  5
4B7
330
17
100
AcDbEntity
  8
PAPER
100
AcDbLine
 10
9.734729373196744
 20
6.133457349358383
 30
0.0
 11
9.604359756219141
 21
6.263826966335952
 31
0.0
  0
LINE
  5
4B8
330
17
100
AcDbEntity
  8
PAPER
100
AcDbLine
 10
9.893794797370611
 20
6.133457349358383
 30
0.0
 11
9.604359756219141
 21
6.422892390509844
 31
0.0
  0
LINE
  5
4B9
330
17
100
AcDbEntity
  8
PAPER
100
AcDbLine
 10
9.904296396447557
 20
6.918282871150759
 30
0.0
 11
9.604359756219141
 21
7.218219511379173
 31
0.0
  0
LINE
  5
4BA
330
17
100
AcDbEntity
  8
PAPER
100
AcDbLine
 10
9.904296396447557
 20
6.759217446976866
 30
0.0
 11
9.604359756219141
 21
7.05915408720528
 31
0.0
  0
LINE
  5
4BB
330
17
100
AcDbEntity
  8
PAPER
100
AcDbLine
 10
9.904296396447557
 20
6.600152022803041
 30
0.0
 11
9.604359756219141
 21
6.900088663031455
 31
0.0
  0
LINE
  5
4BC
330
17
100
AcDbEntity
  8
PAPER
100
AcDbLine
 10
9.904296396447557
 20
6.441086598629148
 30
0.0
 11
9.604359756219141
 21
6.741023238857563
 31
0.0
  0
LINE
  5
4BD
330
17
100
AcDbEntity
  8
PAPER
100
AcDbLine
 10
9.904296396447557
 20
6.282021174455324
 30
0.0
 11
9.604359756219141
 21
6.581957814683738
 31
0.0
  0
LINE
  5
4BE
330
17
100
AcDbEntity
  8
PAPER
100
AcDbLine
 10
9.904296396447557
 20
6.133457349358383
 30
0.0
 11
9.904296396447557
 21
7.884693557782757
 31
0.0
  0
LINE
  5
4BF
330
17
100
AcDbEntity
  8
PAPER
100
AcDbLine
 10
9.510310041589944
 20
1.817462430730468
 30
0.0
 11
9.474881739265038
 21
5.21857945392097
 31
0.0
  0
LINE
  5
4C0
330
17
100
AcDbEntity
  8
PAPER
100
AcDbLine
 10
9.543435126172747
 20
1.953648303189467
 30
0.0
 11
9.543435126172747
 21
2.759728023803329
 31
0.0
  0
LINE
  5
4C1
330
17
100
AcDbEntity
  8
PAPER
100
AcDbLine
 10
9.543435126172747
 20
2.853458223874709
 30
0.0
 11
9.543435126172747
 21
3.659537944488572
 31
0.0
  0
LINE
  5
4C2
330
17
100
AcDbEntity
  8
PAPER
100
AcDbLine
 10
9.543435126172747
 20
3.753268144559951
 30
0.0
 11
9.543435126172747
 21
4.296903304973952
 31
0.0
  0
LINE
  5
4C3
330
17
100
AcDbEntity
  8
PAPER
100
AcDbLine
 10
9.543435126172747
 20
4.390633505045332
 30
0.0
 11
9.543435126172747
 21
5.106676963206171
 31
0.0
  0
LINE
  5
4C4
330
17
100
AcDbEntity
  8
PAPER
100
AcDbLine
 10
9.543435126172747
 20
5.200407163277549
 30
0.0
 11
9.543435126172747
 21
5.333735451537117
 31
0.0
  0
LINE
  5
4C5
330
17
100
AcDbEntity
  8
PAPER
100
AcDbLine
 10
9.508891438751826
 20
1.953648303189467
 30
0.0
 11
9.597329991213788
 21
1.953648303189467
 31
0.0
  0
LINE
  5
4C6
330
17
100
AcDbEntity
  8
PAPER
100
AcDbLine
 10
9.509867795002572
 20
1.859918103118087
 30
0.0
 11
9.597329991213788
 21
1.859918103118087
 31
0.0
  0
LINE
  5
4C7
330
17
100
AcDbEntity
  8
PAPER
100
AcDbLine
 10
9.597329991213788
 20
1.953648303189467
 30
0.0
 11
9.597329991213788
 21
1.859918103118087
 31
0.0
  0
LINE
  5
4C8
330
17
100
AcDbEntity
  8
PAPER
100
AcDbLine
 10
9.49951841874469
 20
2.853458223874709
 30
0.0
 11
9.597329991213788
 21
2.853458223874709
 31
0.0
  0
LINE
  5
4C9
330
17
100
AcDbEntity
  8
PAPER
100
AcDbLine
 10
9.500494774995432
 20
2.759728023803329
 30
0.0
 11
9.597329991213788
 21
2.759728023803329
 31
0.0
  0
LINE
  5
4CA
330
17
100
AcDbEntity
  8
PAPER
100
AcDbLine
 10
9.597329991213788
 20
2.853458223874709
 30
0.0
 11
9.597329991213788
 21
2.759728023803329
 31
0.0
  0
LINE
  5
4CB
330
17
100
AcDbEntity
  8
PAPER
100
AcDbLine
 10
9.490145398737555
 20
3.753268144559951
 30
0.0
 11
9.597329991213788
 21
3.753268144559951
 31
0.0
  0
LINE
  5
4CC
330
17
100
AcDbEntity
  8
PAPER
100
AcDbLine
 10
9.491121754988293
 20
3.659537944488572
 30
0.0
 11
9.597329991213788
 21
3.659537944488572
 31
0.0
  0
LINE
  5
4CD
330
17
100
AcDbEntity
  8
PAPER
100
AcDbLine
 10
9.597329991213788
 20
3.753268144559951
 30
0.0
 11
9.597329991213788
 21
3.659537944488572
 31
0.0
  0
LINE
  5
4CE
330
17
100
AcDbEntity
  8
PAPER
100
AcDbLine
 10
9.47507103395924
 20
5.200407163277549
 30
0.0
 11
9.598008449625806
 21
5.200407163277549
 31
0.0
  0
LINE
  5
4CF
330
17
100
AcDbEntity
  8
PAPER
100
AcDbLine
 10
9.476047390209986
 20
5.106676963206171
 30
0.0
 11
9.598008449625806
 21
5.106676963206171
 31
0.0
  0
LINE
  5
4D0
330
17
100
AcDbEntity
  8
PAPER
100
AcDbLine
 10
9.598008449625806
 20
5.200407163277549
 30
0.0
 11
9.598008449625806
 21
5.106676963206171
 31
0.0
  0
LINE
  5
4D1
330
17
100
AcDbEntity
  8
PAPER
100
AcDbLine
 10
9.597329991213788
 20
4.390633505045332
 30
0.0
 11
9.597329991213788
 21
4.296903304973952
 31
0.0
  0
LINE
  5
4D2
330
17
100
AcDbEntity
  8
PAPER
100
AcDbLine
 10
9.484482532483243
 20
4.296903304973952
 30
0.0
 11
9.597329991213788
 21
4.296903304973952
 31
0.0
  0
LINE
  5
4D3
330
17
100
AcDbEntity
  8
PAPER
100
AcDbLine
 10
9.483506176232497
 20
4.390633505045332
 30
0.0
 11
9.597329991213788
 21
4.390633505045332
 31
0.0
  0
LINE
  5
4D4
330
17
100
AcDbEntity
  8
PAPER
100
AcDbLine
 10
9.604359756219141
 20
1.787277198062769
 30
0.0
 11
9.543435126172747
 21
1.787277198062769
 31
0.0
  0
LINE
  5
4D5
330
17
100
AcDbEntity
  8
PAPER
100
AcDbLine
 10
9.543435126172747
 20
1.787277198062769
 30
0.0
 11
9.543435126172747
 21
1.859918103118087
 31
0.0
  0
LINE
  5
4D6
330
17
100
AcDbEntity
  8
PAPER
100
AcDbLine
 10
9.604359756219141
 20
1.787277198062769
 30
0.0
 11
9.604359756219141
 21
5.723945601060704
 31
0.0
  0
LINE
  5
4D7
330
17
100
AcDbEntity
  8
PAPER
100
AcDbLine
 10
9.510310041589944
 20
1.817462430730468
 30
0.0
 11
9.425957437823209
 21
1.81658375777458
 31
0.0
  0
LINE
  5
4D8
330
17
100
AcDbEntity
  8
PAPER
100
AcDbLine
 10
9.454074972412124
 20
1.816876648759876
 30
0.0
 11
9.418678187288739
 21
5.214968020604652
 31
0.0
  0
LINE
  5
4D9
330
17
100
AcDbEntity
  8
PAPER
100
AcDbLine
 10
9.425957437823209
 20
1.81658375777458
 30
0.0
 11
9.390576411300584
 21
5.213162303946495
 31
0.0
  0
LINE
  5
4DA
330
17
100
AcDbEntity
  8
PAPER
100
AcDbLine
 10
9.604359756219141
 20
1.787277198062769
 30
0.0
 11
9.604359756219141
 21
5.386516880803738
 31
0.0
  0
LINE
  5
4DB
330
17
100
AcDbEntity
  8
PAPER
100
AcDbLine
 10
9.904296396447557
 20
1.787277198062769
 30
0.0
 11
9.904296396447557
 21
5.9545289164764
 31
0.0
  0
POINT
  5
4DC
330
17
100
AcDbEntity
  8
PAPER
100
AcDbPoint
 10
9.391201040900805
 20
5.153197862325322
 30
0.0
  0
ARC
  5
4DD
330
17
100
AcDbEntity
  8
PAPER
100
AcDbCircle
 10
8.589479968862336
 20
6.052910157978526
 30
0.0
 40
0.5623812004282766
100
AcDbArc
 50
0.3842967333174895
 51
90.0
  0
ARC
  5
4DE
330
17
100
AcDbEntity
  8
PAPER
100
AcDbCircle
 10
8.589479968862336
 20
6.052910157978526
 30
0.0
 40
0.646738380492518
100
AcDbArc
 50
0.3341704614466916
 51
90.0
  0
ARC
  5
4DF
330
17
100
AcDbEntity
  8
PAPER
100
AcDbCircle
 10
8.589479968862336
 20
6.052910157978526
 30
0.0
 40
0.5905002604496904
100
AcDbArc
 50
0.3659966337408674
 51
90.0
  0
LINE
  5
4E0
330
17
100
AcDbEntity
  8
PAPER
100
AcDbLine
 10
6.663873140930885
 20
6.699746163503084
 30
0.0
 11
6.797286909788193
 21
6.699746163503084
 31
0.0
  0
LINE
  5
4E1
330
17
100
AcDbEntity
  8
PAPER
100
AcDbLine
 10
8.891566048709632
 20
6.624762003445979
 30
0.0
 11
9.604359756219141
 21
6.624762003445979
 31
0.0
  0
LINE
  5
4E2
330
17
100
AcDbEntity
  8
PAPER
100
AcDbLine
 10
6.653554245401059
 20
6.615388983438842
 30
0.0
 11
6.797286909788193
 21
6.615388983438842
 31
0.0
  0
LINE
  5
4E3
330
17
100
AcDbEntity
  8
PAPER
100
AcDbLine
 10
6.663873140930885
 20
6.643508043460256
 30
0.0
 11
6.797286909788197
 21
6.643508043460256
 31
0.0
  0
LINE
  5
4E4
330
17
100
AcDbEntity
  8
PAPER
100
AcDbLine
 10
7.825653690598178
 20
6.829513437888611
 30
0.0
 11
7.825653690598178
 21
6.492084717631645
 31
0.0
  0
LINE
  5
4E5
330
17
100
AcDbEntity
  8
PAPER
100
AcDbLine
 10
7.716371370324953
 20
6.82961106292072
 30
0.0
 11
7.716371370324953
 21
6.492182342663753
 31
0.0
  0
LINE
  5
4E6
330
17
100
AcDbEntity
  8
PAPER
100
AcDbLine
 10
7.825653690598189
 20
6.699648538471043
 30
0.0
 11
9.594987753139422
 21
6.699648538471043
 31
0.0
  0
LINE
  5
4E7
330
17
100
AcDbEntity
  8
PAPER
100
AcDbLine
 10
7.825653690598178
 20
6.643410418428215
 30
0.0
 11
8.589479968862336
 21
6.643410418428215
 31
0.0
  0
LINE
  5
4E8
330
17
100
AcDbEntity
  8
PAPER
100
AcDbLine
 10
7.825653690598178
 20
6.615291358406802
 30
0.0
 11
8.589479968862336
 21
6.615291358406802
 31
0.0
  0
LINE
  5
4E9
330
17
100
AcDbEntity
  8
PAPER
100
AcDbLine
 10
9.904296396447557
 20
6.133457349358383
 30
0.0
 11
9.904296396447557
 21
6.056682157235693
 31
0.0
  0
LINE
  5
4EA
330
17
100
AcDbEntity
  8
PAPER
100
AcDbLine
 10
9.811504565319426
 20
6.056682157235693
 30
0.0
 11
9.734729373196744
 21
6.133457349358383
 31
0.0
  0
LINE
  5
4EB
330
17
100
AcDbEntity
  8
PAPER
100
AcDbLine
 10
9.604359756219141
 20
6.056682157235693
 30
0.0
 11
9.604359756219141
 21
7.562387792759183
 31
0.0
  0
LINE
  5
4EC
330
17
100
AcDbEntity
  8
PAPER
100
AcDbLine
 10
9.904296396447554
 20
1.787277198062769
 30
0.0
 11
9.604359756219141
 21
1.787277198062769
 31
0.0
  0
LINE
  5
4ED
330
17
100
AcDbEntity
  8
PAPER
100
AcDbLine
 10
9.971322839828482
 20
6.056682157235693
 30
0.0
 11
9.049100649646559
 21
6.056682157235693
 31
0.0
  0
LINE
  5
4EE
330
17
100
AcDbEntity
  8
PAPER
100
AcDbLine
 10
9.543435126172747
 20
6.120296266286095
 30
0.0
 11
9.543435126172754
 21
6.624762003445979
 31
0.0
  0
LINE
  5
4EF
330
17
100
AcDbEntity
  8
PAPER
100
AcDbLine
 10
9.652439141145558
 20
6.056682157235693
 30
0.0
 11
9.604359756219141
 21
6.104761542162127
 31
0.0
  0
LINE
  5
4F0
330
17
100
AcDbEntity
  8
PAPER
100
AcDbLine
 10
9.904296396447557
 20
5.386516880803738
 30
0.0
 11
9.604359756219141
 21
5.386516880803738
 31
0.0
  0
LINE
  5
4F1
330
17
100
AcDbEntity
  8
PAPER
100
AcDbLine
 10
9.604359756219141
 20
5.386516880803738
 30
0.0
 11
9.604359756219141
 21
5.9545289164764
 31
0.0
  0
LINE
  5
4F2
330
17
100
AcDbEntity
  8
PAPER
100
AcDbLine
 10
9.604359756219141
 20
5.723945601060704
 30
0.0
 11
9.543435126172747
 21
5.723945601060704
 31
0.0
  0
LINE
  5
4F3
330
17
100
AcDbEntity
  8
PAPER
100
AcDbLine
 10
9.604359756219141
 20
5.723945601060704
 30
0.0
 11
9.604359756219141
 21
5.9545289164764
 31
0.0
  0
LINE
  5
4F4
330
17
100
AcDbEntity
  8
PAPER
100
AcDbLine
 10
9.543435126172747
 20
5.723945601060704
 30
0.0
 11
9.543435126172747
 21
5.805959526123162
 31
0.0
  0
LINE
  5
4F5
330
17
100
AcDbEntity
  8
PAPER
100
AcDbLine
 10
9.604359756219141
 20
5.723945601060704
 30
0.0
 11
9.543435126172747
 21
5.723945601060704
 31
0.0
  0
LINE
  5
4F6
330
17
100
AcDbEntity
  8
PAPER
100
AcDbLine
 10
9.597329991213788
 20
5.805959526123162
 30
0.0
 11
9.597329991213788
 21
5.899689726194541
 31
0.0
  0
LINE
  5
4F7
330
17
100
AcDbEntity
  8
PAPER
100
AcDbLine
 10
9.597329991213788
 20
5.899689726194541
 30
0.0
 11
9.394190923699396
 21
5.899689726194541
 31
0.0
  0
LINE
  5
4F8
330
17
100
AcDbEntity
  8
PAPER
100
AcDbLine
 10
9.597329991213788
 20
5.805959526123162
 30
0.0
 11
9.405295096686904
 21
5.805959526123162
 31
0.0
  0
POINT
  5
4F9
330
17
100
AcDbEntity
  8
PAPER
100
AcDbPoint
 10
9.604359756219141
 20
5.723945601060704
 30
0.0
  0
POINT
  5
4FA
330
17
100
AcDbEntity
  8
PAPER
100
AcDbPoint
 10
9.604359756219141
 20
5.723945601060704
 30
0.0
  0
LINE
  5
4FB
330
17
100
AcDbEntity
  8
PAPER
100
AcDbLine
 10
9.543435126172747
 20
5.899689726194541
 30
0.0
 11
9.543435126172747
 21
5.9545289164764
 31
0.0
  0
LINE
  5
4FC
330
17
100
AcDbEntity
  8
PAPER
100
AcDbLine
 10
9.904296396447557
 20
5.804824901933713
 30
0.0
 11
9.754592381904862
 21
5.9545289164764
 31
0.0
  0
LINE
  5
4FD
330
17
100
AcDbEntity
  8
PAPER
100
AcDbLine
 10
9.904296396447557
 20
5.64575947775982
 30
0.0
 11
9.604359756219141
 21
5.945696117988234
 31
0.0
  0
LINE
  5
4FE
330
17
100
AcDbEntity
  8
PAPER
100
AcDbLine
 10
9.904296396447557
 20
5.486694053585995
 30
0.0
 11
9.604359756219141
 21
5.78663069381441
 31
0.0
  0
LINE
  5
4FF
330
17
100
AcDbEntity
  8
PAPER
100
AcDbLine
 10
9.845408145055904
 20
5.386516880803738
 30
0.0
 11
9.604359756219141
 21
5.627565269640516
 31
0.0
  0
LINE
  5
500
330
17
100
AcDbEntity
  8
PAPER
100
AcDbLine
 10
9.686342720882036
 20
5.386516880803738
 30
0.0
 11
9.604359756219141
 21
5.468499845466623
 31
0.0
  0
LINE
  5
501
330
17
100
AcDbEntity
  8
PAPER
100
AcDbLine
 10
9.474881739265038
 20
5.21857945392097
 30
0.0
 11
9.387694150461742
 21
5.9545289164764
 31
0.0
  0
LINE
  5
502
330
17
100
AcDbEntity
  8
PAPER
100
AcDbLine
 10
9.418678187288739
 20
5.214968020604652
 30
0.0
 11
9.331062753668648
 21
5.9545289164764
 31
0.0
  0
LINE
  5
503
330
17
100
AcDbEntity
  8
PAPER
100
AcDbLine
 10
9.390576411300584
 20
5.213162303946495
 30
0.0
 11
9.302747055272108
 21
5.9545289164764
 31
0.0
  0
LINE
  5
504
330
17
100
AcDbEntity
  8
PAPER
100
AcDbLine
 10
9.543435126172747
 20
5.202357684606514
 30
0.0
 11
9.543435126172747
 21
5.723945601060704
 31
0.0
  0
LINE
  5
505
330
17
100
AcDbEntity
  8
PAPER
100
AcDbLine
 10
9.974239326111993
 20
5.9545289164764
 30
0.0
 11
9.047803331499549
 21
5.9545289164764
 31
0.0
  0
LINE
  5
506
330
17
100
AcDbEntity
  8
PAPER
100
AcDbLine
 10
9.597329991213788
 20
6.120296266286095
 30
0.0
 11
9.232698162952983
 21
6.120296266286095
 31
0.0
  0
LINE
  5
507
330
17
100
AcDbEntity
  8
PAPER
100
AcDbLine
 10
9.597329991213788
 20
6.056682157235693
 30
0.0
 11
9.597329991213788
 21
6.120296266286095
 31
0.0
  0
LINE
  5
508
330
17
100
AcDbEntity
  8
PAPER
100
AcDbLine
 10
6.728538405458162
 20
6.699746163503084
 30
0.0
 11
6.728538405458161
 21
7.187466992473665
 31
0.0
  0
LINE
  5
509
330
17
100
AcDbEntity
  8
PAPER
100
AcDbLine
 10
9.475553429846618
 20
5.154097158089399
 30
0.0
 11
9.391200826079886
 21
5.153218485133344
 31
0.0
  0
LWPOLYLINE
  5
50A
330
17
100
AcDbEntity
  8
PAPER
100
AcDbPolyline
 90
        4
 70
     0
 43
0.0
 10
6.797286909788192
 20
6.73810620330398
 10
6.797286909788192
 20
6.542009814676957
 42
0.855783992030626
 10
6.912349300236343
 20
6.524017786104265
 42
0.0004912296420222
 10
6.99075623035832
 20
6.769430277705311
 42
0.1553612620775308
  0
LWPOLYLINE
  5
510
330
17
100
AcDbEntity
  8
PAPER
100
AcDbPolyline
 90
        4
 70
     0
 43
0.0
 10
6.808682512392381
 20
6.73810620330398
 10
6.808682512392381
 20
6.542009814676957
 42
0.8557839920306282
 10
6.901497661001744
 20
6.527496533671257
 42
0.0004912296420222
 10
6.97989777662155
 20
6.772887695984743
 42
0.0004912296420222
  0
LINE
  5
516
330
17
100
AcDbEntity
  8
PAPER
100
AcDbLine
 10
6.797286909788193
 20
6.73810620330398
 30
0.0
 11
6.808682512392381
 21
6.73810620330398
 31
0.0
  0
LINE
  5
517
330
17
100
AcDbEntity
  8
PAPER
100
AcDbLine
 10
6.979897776621551
 20
6.772887695984743
 30
0.0
 11
6.99075623035832
 21
6.769430277705311
 31
0.0
  0
LINE
  5
518
330
17
100
AcDbEntity
  8
PAPER
100
AcDbLine
 10
6.808682512392381
 20
6.693399447285219
 30
0.0
 11
6.910516648967422
 21
6.693399447285219
 31
0.0
  0
LINE
  5
519
330
17
100
AcDbEntity
  8
PAPER
100
AcDbLine
 10
6.910516648967422
 20
6.693399447285219
 30
0.0
 11
6.910516648967422
 21
6.650206360015631
 31
0.0
  0
LINE
  5
51A
330
17
100
AcDbEntity
  8
PAPER
100
AcDbLine
 10
6.910516648967422
 20
6.650206360015631
 30
0.0
 11
6.808682512392381
 21
6.650206360015631
 31
0.0
  0
LINE
  5
51B
330
17
100
AcDbEntity
  8
PAPER
100
AcDbLine
 10
6.968546845122535
 20
6.699746163503084
 30
0.0
 11
7.716371370324953
 21
6.699746163503083
 31
0.0
  0
LINE
  5
51C
330
17
100
AcDbEntity
  8
PAPER
100
AcDbLine
 10
6.95059167250213
 20
6.643508043460256
 30
0.0
 11
7.716371370324953
 21
6.643508043460256
 31
0.0
  0
LINE
  5
51D
330
17
100
AcDbEntity
  8
PAPER
100
AcDbLine
 10
6.941603621393276
 20
6.615388983438842
 30
0.0
 11
7.716371370324952
 21
6.615388983438842
 31
0.0
  0
LINE
  5
51E
330
17
100
AcDbEntity
  8
PAPER
100
AcDbLine
 10
6.808682512392381
 20
6.699746163503084
 30
0.0
 11
6.956585342584079
 21
6.699746163503084
 31
0.0
  0
LINE
  5
51F
330
17
100
AcDbEntity
  8
PAPER
100
AcDbLine
 10
6.808682512392384
 20
6.643508043460256
 30
0.0
 11
6.93862845020201
 21
6.643508043460256
 31
0.0
  0
LINE
  5
520
330
17
100
AcDbEntity
  8
PAPER
100
AcDbLine
 10
6.808682512392381
 20
6.615388983438842
 30
0.0
 11
6.929639538024235
 21
6.615388983438842
 31
0.0
  0
TEXT
  5
521
330
17
100
AcDbEntity
  8
PAPER
100
AcDbText
 10
6.908341331530081
 20
5.480691418706262
 30
0.0
 40
0.07
  1
SPRING BUMPER:
  7
arial1
100
AcDbText
  0
LWPOLYLINE
  5
545
330
17
100
AcDbEntity
  8
PAPER
100
AcDbPolyline
 90
        4
 70
     1
 43
0.0
 10
0.1822
 20
0.7097545816086356
 10
10.8178
 20
0.7097545816086356
 10
10.8178
 20
8.3178
 10
0.1822
 20
8.3178
  0
LWPOLYLINE
  5
54B
330
17
100
AcDbEntity
  8
PAPER
100
AcDbPolyline
 90
        4
 70
     1
 43
0.0
 10
0.1678
 20
0.6953545816086355
 10
10.8322
 20
0.6953545816086355
 10
10.8322
 20
8.3322
 10
0.1678
 20
8.332199999999998
  0
LWPOLYLINE
  5
551
330
17
100
AcDbEntity
  8
PAPER
100
AcDbPolyline
 90
        4
 70
     1
 43
0.0
 10
0.175
 20
0.7025545816086356
 10
10.825
 20
0.7025545816086356
 10
10.825
 20
8.325000000000001
 10
0.175
 20
8.325000000000001
  0
LINE
  5
559
330
17
100
AcDbEntity
  8
PAPER
100
AcDbLine
 10
0.1822000000000003
 20
1.445354581608635
 30
0.0
 11
10.82409243843734
 21
1.445354581608635
 31
0.0
  0
LINE
  5
55A
330
17
100
AcDbEntity
  8
PAPER
100
AcDbLine
 10
0.1822000000000003
 20
1.459754581608635
 30
0.0
 11
10.82409243843734
 21
1.459754581608635
 31
0.0
  0
LINE
  5
55B
330
17
100
AcDbEntity
  8
PAPER
100
AcDbLine
 10
0.1822000000000003
 20
1.452554581608635
 30
0.0
 11
10.82409243843734
 21
1.452554581608635
 31
0.0
  0
LINE
  5
55C
330
17
100
AcDbEntity
  8
DEFPOINTS
  6
CENTER
100
AcDbLine
 10
10.5
 20
8.5
 30
0.0
 11
11.5
 21
8.5
 31
0.0
  0
LINE
  5
55D
330
17
100
AcDbEntity
  8
DEFPOINTS
  6
CENTER
100
AcDbLine
 10
11.0
 20
8.0
 30
0.0
 11
11.0
 21
9.0
 31
0.0
  0
LINE
  5
55E
330
17
100
AcDbEntity
  8
DEFPOINTS
  6
CENTER
100
AcDbLine
 10
-0.5
 20
8.5
 30
0.0
 11
0.5
 21
8.5
 31
0.0
  0
LINE
  5
55F
330
17
100
AcDbEntity
  8
DEFPOINTS
  6
CENTER
100
AcDbLine
 10
0.0
 20
8.0
 30
0.0
 11
0.0
 21
9.0
 31
0.0
  0
LINE
  5
560
330
17
100
AcDbEntity
  8
DEFPOINTS
  6
CENTER
100
AcDbLine
 10
10.5
 20
0.0
 30
0.0
 11
11.5
 21
0.0
 31
0.0
  0
LINE
  5
561
330
17
100
AcDbEntity
  8
DEFPOINTS
  6
CENTER
100
AcDbLine
 10
11.0
 20
-0.5
 30
0.0
 11
11.0
 21
0.5
 31
0.0
  0
LINE
  5
562
330
17
100
AcDbEntity
  8
DEFPOINTS
  6
CENTER
100
AcDbLine
 10
0.0
 20
-0.5
 30
0.0
 11
0.0
 21
0.5
 31
0.0
  0
LINE
  5
563
330
17
100
AcDbEntity
  8
DEFPOINTS
  6
CENTER
100
AcDbLine
 10
-0.5
 20
0.0
 30
0.0
 11
0.5
 21
0.0
 31
0.0
  0
LINE
  5
56A
330
17
100
AcDbEntity
  8
PAPER
100
AcDbLine
 10
9.949916132348565
 20
5.386516880803738
 30
0.0
 11
10.0581324567811
 21
5.386516880803738
 31
0.0
  0
LINE
  5
56B
330
17
100
AcDbEntity
  8
PAPER
100
AcDbLine
 10
10.15282174065958
 20
5.386516880803738
 30
0.0
 11
10.4774707139572
 21
5.386516880803738
 31
0.0
  0
LINE
  5
56E
330
17
100
AcDbEntity
  8
PAPER
100
AcDbLine
 10
9.489996753510267
 20
5.386516880803738
 30
0.0
 11
6.703426399372345
 21
5.386516880803738
 31
0.0
  0
LINE
  5
56F
330
17
100
AcDbEntity
  8
PAPER
100
AcDbLine
 10
6.608737115493872
 20
5.386516880803738
 30
0.0
 11
6.311142223304386
 21
5.386516880803738
 31
0.0
  0
INSERT
  5
570
330
17
100
AcDbEntity
  8
PAPER
100
AcDbBlockReference
  2
RECT
 10
5.470373779377569
 20
2.242457147575892
 30
0.0
 41
0.09375
 42
0.09375
 43
0.09375
  0
TEXT
  5
571
330
17
100
AcDbEntity
  8
PAPER
100
AcDbText
 10
5.620349811126948
 20
2.25817703995035
 30
0.0
 40
0.07
  1
BY OTHERS
  7
arial1
100
AcDbText
  0
TEXT
  5
572
330
17
100
AcDbEntity
  8
PAPER
100
AcDbText
 10
0.3592443795146509
 20
6.280012292055645
 30
0.0
 40
0.07
  1
%%uHEADROOM REQUIREMENTS:
  7
ARIAL2
100
AcDbText
  0
TEXT
  5
573
330
17
100
AcDbEntity
  8
PAPER
100
AcDbText
 10
0.3592443795146509
 20
6.115658686361171
 30
0.0
 40
0.07
  1
MIN. HEADROOM = HI-LIFT + 12"
  7
arial1
100
AcDbText
  0
TEXT
  5
574
330
17
100
AcDbEntity
  8
PAPER
100
AcDbText
 10
0.3592443795146509
 20
6.002325353027837
 30
0.0
 40
0.07
  1
4" ADDITIONAL HEADROOM REQUIRED
  7
arial1
100
AcDbText
  0
TEXT
  5
575
330
17
100
AcDbEntity
  8
PAPER
100
AcDbText
 10
0.3262342886990894
 20
5.888992019694504
 30
0.0
 40
0.07
  1
   FOR TROLLEY OPERATOR
  7
arial1
100
AcDbText
  0
TEXT
  5
576
330
17
100
AcDbEntity
  8
PAPER
100
AcDbText
 10
0.2932241978835278
 20
5.775658686361171
 30
0.0
 40
0.07
  1
12" ADDITIONAL HEADROOM REQUIRED
  7
arial1
100
AcDbText
  0
TEXT
  5
577
330
17
100
AcDbEntity
  8
PAPER
100
AcDbText
 10
0.3262342886990894
 20
5.662325353027838
 30
0.0
 40
0.07
  1
   FOR DOUBLE SHAFT
  7
arial1
100
AcDbText
  0
TEXT
  5
578
330
17
100
AcDbEntity
  8
PAPER
100
AcDbText
 10
6.527433979938092
 20
5.741363918915283
 30
0.0
 40
0.07
  1
13'6" MAX.
 50
90.0
  7
arial1
 72
     1
 11
6.527433979938092
 21
5.982758871166306
 31
0.0
100
AcDbText
  0
TEXT
  5
579
330
17
100
AcDbEntity
  8
PAPER
100
AcDbText
 10
0.8388124347785408
 20
1.907306714295021
 30
0.0
 40
0.07
  1
FOR USE WITH STEEL JAMBS
  7
arial1
100
AcDbText
  0
TEXT
  5
57A
330
17
100
AcDbEntity
  8
PAPER
100
AcDbText
 10
0.8388124347785408
 20
1.636565321770258
 30
0.0
 40
0.07
  1
FOR USE WITH WOOD JAMBS
  7
arial1
100
AcDbText
  0
TEXT
  5
57B
330
17
100
AcDbEntity
  8
PAPER
100
AcDbText
 10
0.3592443795146509
 20
5.342567734312951
 30
0.0
 40
0.07
  1
%%uMAX. AVAILABLE HI-LIFT:
  7
ARIAL2
100
AcDbText
  0
TEXT
  5
57C
330
17
100
AcDbEntity
  8
HL-TRACK
100
AcDbText
 10
0.3262342886990894
 20
5.502348727727
 30
0.0
 40
0.07
  1
 
100
AcDbText
  0
TEXT
  5
57D
330
17
100
AcDbEntity
  8
PAPER
100
AcDbText
 10
0.3573597753478524
 20
4.773102157987126
 30
0.0
 40
0.07
  1
HI-LIFT MAY NOT EXCEED DOOR HEIGHT - 24"
  7
arial1
100
AcDbText
  0
TEXT
  5
57E
330
17
100
AcDbEntity
  8
PAPER
100
AcDbText
 10
0.3592443795146509
 20
4.966384313205227
 30
0.0
 40
0.07
  1
FLOOR TO CEILING - (DOOR HEIGHT + 12")
  7
arial1
100
AcDbText
  0
TEXT
  5
57F
330
17
100
AcDbEntity
  8
PAPER
100
AcDbText
 10
0.3592443795146509
 20
5.07971764653856
 30
0.0
 40
0.07
  1
MAXIMUM HI-LIFT =
  7
arial1
100
AcDbText
  0
TEXT
  5
580
330
17
100
AcDbEntity
  8
PAPER
100
AcDbText
 10
0.3573597753478524
 20
4.659768824653792
 30
0.0
 40
0.07
  1
OR EXCEED 162" (13'6")
  7
arial1
100
AcDbText
  0
LINE
  5
581
330
17
100
AcDbEntity
  8
PAPER
100
AcDbLine
 10
6.653554245401058
 20
7.187466992473665
 30
0.0
 11
6.653554245401059
 21
6.615388983438842
 31
0.0
  0
LINE
  5
582
330
17
100
AcDbEntity
  8
PAPER
100
AcDbLine
 10
6.663873140930883
 20
7.187466992473665
 30
0.0
 11
6.663873140930885
 21
6.615388983438842
 31
0.0
  0
LINE
  5
583
330
17
100
AcDbEntity
  8
PAPER
100
AcDbLine
 10
7.874481101823731
 20
7.187466992473666
 30
0.0
 11
7.874481101823731
 21
6.699648538471044
 31
0.0
  0
LINE
  5
584
330
17
100
AcDbEntity
  8
PAPER
100
AcDbLine
 10
7.884799997353559
 20
7.187466992473666
 30
0.0
 11
7.884799997353558
 21
6.699648538471044
 31
0.0
  0
INSERT
  5
585
330
17
100
AcDbEntity
  8
PAPER
100
AcDbBlockReference
  2
RECT
 10
5.470373779377569
 20
2.095826009623817
 30
0.0
 41
0.09375
 42
0.09375
 43
0.09375
  0
TEXT
  5
586
330
17
100
AcDbEntity
  8
PAPER
100
AcDbText
 10
5.620349811126948
 20
2.111545901998275
 30
0.0
 40
0.07
  1
NONE
  7
arial1
100
AcDbText
  0
TEXT
  5
587
330
17
100
AcDbEntity
  8
PAPER
100
AcDbText
 10
5.406301618391901
 20
2.796525332129435
 30
0.0
 40
0.07
  1
AVAILABLE ON TRACKS WITH
  7
arial1
100
AcDbText
  0
TEXT
  5
588
330
17
100
AcDbEntity
  8
PAPER
100
AcDbText
 10
5.406301618391901
 20
2.683191998796102
 30
0.0
 40
0.07
  1
MORE THAN 24" HI-LIFT
  7
arial1
100
AcDbText
  0
TEXT
  5
589
330
17
100
AcDbEntity
  8
PAPER
100
AcDbText
 10
0.5896339149514139
 20
7.426167604081854
 30
0.0
 40
0.07
  1
* STRAIGHT INCLINE TRACK
  7
arial1
 72
     1
 11
1.255230777161509
 21
7.426167604081854
 31
0.0
100
AcDbText
  0
LWPOLYLINE
  5
58A
330
17
100
AcDbEntity
  8
PAPER
100
AcDbPolyline
 90
        4
 70
     1
 43
0.015625
 10
0.3802307771615094
 20
7.247471555497889
 10
2.130230777161509
 20
7.247471555497889
 10
2.130230777161509
 20
6.528721555497889
 10
0.3802307771615094
 20
6.528721555497889
  0
LWPOLYLINE
  5
590
330
17
100
AcDbEntity
  8
PAPER
100
AcDbPolyline
 90
        2
 70
     0
 43
0.015625
 10
0.3802307771615094
 20
7.091221555497889
 10
2.130230777161509
 20
7.091221555497889
  0
LWPOLYLINE
  5
594
330
17
100
AcDbEntity
  8
PAPER
100
AcDbPolyline
 90
        2
 70
     0
 43
0.015625
 10
0.3802307771615094
 20
6.903721555497889
 10
2.130230777161509
 20
6.903721555497889
  0
LWPOLYLINE
  5
598
330
17
100
AcDbEntity
  8
PAPER
100
AcDbPolyline
 90
        2
 70
     0
 43
0.015625
 10
0.3802307771615094
 20
6.716221555497889
 10
2.130230777161509
 20
6.716221555497889
  0
TEXT
  5
59C
330
17
100
AcDbEntity
  8
PAPER
100
AcDbText
 10
0.4427307771615094
 20
7.122471555497889
 30
0.0
 40
0.07
  1
DOOR HEIGHT
  7
arial1
100
AcDbText
  0
TEXT
  5
59D
330
17
100
AcDbEntity
  8
PAPER
100
AcDbText
 10
1.348980777161509
 20
7.122471555497889
 30
0.0
 40
0.07
  1
MAX. HI-LIFT
  7
arial1
100
AcDbText
  0
LWPOLYLINE
  5
59E
330
17
100
AcDbEntity
  8
PAPER
100
AcDbPolyline
 90
        2
 70
     0
 43
0.015625
 10
1.255230777161509
 20
7.247471555497889
 10
1.255230777161509
 20
6.528721555497889
  0
TEXT
  5
5A2
330
17
100
AcDbEntity
  8
PAPER
100
AcDbText
 10
0.4114807771615094
 20
6.963434345390335
 30
0.0
 40
0.07
  1
THRU 14'0"
  7
arial1
100
AcDbText
  0
TEXT
  5
5A3
330
17
100
AcDbEntity
  8
PAPER
100
AcDbText
 10
0.4114807771615094
 20
6.775934345390335
 30
0.0
 40
0.07
  1
@ 15'0"
  7
arial1
100
AcDbText
  0
TEXT
  5
5A4
330
17
100
AcDbEntity
  8
PAPER
100
AcDbText
 10
0.4114807771615094
 20
6.588434345390335
 30
0.0
 40
0.07
  1
@ 16'0"
  7
arial1
100
AcDbText
  0
TEXT
  5
5A5
330
17
100
AcDbEntity
  8
PAPER
100
AcDbText
 10
1.598980777161509
 20
6.963434345390335
 30
0.0
 40
0.07
  1
54"
  7
arial1
100
AcDbText
  0
TEXT
  5
5A6
330
17
100
AcDbEntity
  8
PAPER
100
AcDbText
 10
1.598980777161509
 20
6.775934345390335
 30
0.0
 40
0.07
  1
43"
  7
arial1
100
AcDbText
  0
TEXT
  5
5A7
330
17
100
AcDbEntity
  8
PAPER
100
AcDbText
 10
1.598980777161509
 20
6.588434345390335
 30
0.0
 40
0.07
  1
31"
  7
arial1
100
AcDbText
  0
TEXT
  5
5A9
330
17
100
AcDbEntity
  8
PAPER
100
AcDbText
 10
0.9346680213634193
 20
7.329208802274388
 30
0.0
 40
0.07
  1
LIMITATIONS:
  7
arial1
 72
     1
 11
1.255230777161509
 21
7.329208802274388
 31
0.0
100
AcDbText
  0
TEXT
  5
5AA
330
17
100
AcDbEntity
  8
PAPER
100
AcDbText
 10
0.3717845777747111
 20
5.224539311360535
 30
0.0
 40
0.07
  1
(BREAKAWAY TRACK)
  7
arial1
100
AcDbText
  0
LWPOLYLINE
  5
5AB
330
17
100
AcDbEntity
  8
PAPER
100
AcDbPolyline
 90
        2
 70
     0
 43
0.0
 10
9.31027219765089
 20
6.777664293180638
 10
9.31027219765089
 20
6.699648538471044
  0
LWPOLYLINE
  5
5AF
330
17
100
AcDbEntity
  8
PAPER
100
AcDbPolyline
 90
        2
 70
     0
 43
0.0
 10
9.481264558200006
 20
6.699648538471043
 10
9.481264558200006
 20
6.756671993667623
  0
LWPOLYLINE
  5
5B3
330
17
100
AcDbEntity
  8
PAPER
100
AcDbPolyline
 90
        2
 70
     0
 43
0.0
 10
9.524468519360025
 20
6.796803617670531
 10
9.604359756219141
 20
6.79680361767053
  0
LWPOLYLINE
  5
5B7
330
17
100
AcDbEntity
  8
PAPER
100
AcDbPolyline
 90
        2
 70
     0
 43
0.0
 10
9.604359756219141
 20
6.969076686550974
 10
9.51595329610553
 20
6.969076686550974
  0
LINE
  5
5BB
330
17
100
AcDbEntity
  8
PAPER
  6
ByBlock
100
AcDbLine
 10
8.679479968862338
 20
6.615291358406802
 30
0.0
 11
10.17224061899738
 21
6.615291358406802
 31
0.0
  0
LINE
  5
5BC
330
17
100
AcDbEntity
  8
PAPER
  6
ByBlock
100
AcDbLine
 10
9.970318725238989
 20
1.783045505789983
 30
0.0
 11
10.17224061899738
 21
1.783045505789983
 31
0.0
  0
LINE
  5
5BD
330
17
100
AcDbEntity
  8
PAPER
  6
ByBlock
100
AcDbLine
 10
10.11224061899737
 20
6.545291358406801
 30
0.0
 11
10.11224061899737
 21
4.899168432098393
 31
0.0
  0
LINE
  5
5BE
330
17
100
AcDbEntity
  8
PAPER
  6
ByBlock
100
AcDbLine
 10
10.11224061899737
 20
1.853045505789983
 30
0.0
 11
10.11224061899737
 21
3.499168432098393
 31
0.0
  0
SOLID
  5
5BF
330
17
100
AcDbEntity
  8
PAPER
  6
ByBlock
100
AcDbTrace
 10
10.12390728566404
 20
6.545291358406801
 30
0.0
 11
10.10057395233071
 21
6.545291358406801
 31
0.0
 12
10.11224061899737
 22
6.615291358406802
 32
0.0
 13
10.11224061899737
 23
6.615291358406802
 33
0.0
  0
SOLID
  5
5C0
330
17
100
AcDbEntity
  8
PAPER
  6
ByBlock
100
AcDbTrace
 10
10.12390728566404
 20
1.853045505789983
 30
0.0
 11
10.10057395233071
 21
1.853045505789983
 31
0.0
 12
10.11224061899737
 22
1.783045505789983
 32
0.0
 13
10.11224061899737
 23
1.783045505789983
 33
0.0
  0
TEXT
  5
5C1
330
17
100
AcDbEntity
  8
PAPER
  6
ByBlock
100
AcDbText
 10
10.14724061899737
 20
3.569168432098393
 30
0.0
 40
0.07
  1
OVERHEAD CLEARANCE
 50
90.0
  7
arial1
100
AcDbText
  0
POINT
  5
5C2
330
17
100
AcDbEntity
  8
DEFPOINTS
  6
ByBlock
 62
     0
100
AcDbPoint
 10
8.589479968862338
 20
6.615291358406802
 30
0.0
  0
POINT
  5
5C3
330
17
100
AcDbEntity
  8
DEFPOINTS
  6
ByBlock
 62
     0
100
AcDbPoint
 10
9.880318725238989
 20
1.783045505789983
 30
0.0
  0
POINT
  5
5C4
330
17
100
AcDbEntity
  8
PAPER
  6
ByBlock
100
AcDbPoint
 10
10.11224061899737
 20
1.783045505789983
 30
0.0
  0
TEXT
  5
5C6
330
17
100
AcDbEntity
  8
PAPER
100
AcDbText
 10
1.112935060046587
 20
7.883668106031016
 30
0.0
 40
0.07
  1
(HI-LIFT AVAILABLE IN 3" INCREMENTS)
  7
arial1
100
AcDbText
  0
INSERT
  5
5C7
330
17
100
AcDbEntity
  8
PAPER
100
AcDbBlockReference
  2
12393
 10
0.1373376765824066
 20
0.6953545816086355
 30
0.0
  0
TEXT
  5
620
330
17
100
AcDbEntity
  8
PAPER
100
AcDbText
 10
4.238156660742261
 20
1.028184681627082
 30
0.0
 40
0.06
  1
OPENING SIZE:              '            " W  x               '           " H
  7
arial1
100
AcDbText
  0
TEXT
  5
621
330
17
100
AcDbEntity
  8
PAPER
100
AcDbText
 10
4.238156660742261
 20
0.7559681178433885
 30
0.0
 40
0.06
  1
DOOR SIZE:             '           " W  x                '          " H
  7
arial1
100
AcDbText
  0
LINE
  5
622
330
17
100
AcDbEntity
  8
PAPER
100
AcDbLine
 10
5.681826227580661
 20
0.7379282409430156
 30
0.0
 11
5.889799720208979
 21
0.7379282409430156
 31
0.0
  0
LINE
  5
623
330
17
100
AcDbEntity
  8
PAPER
100
AcDbLine
 10
4.208680654796743
 20
0.9574665948454448
 30
0.0
 11
6.490612032246341
 21
0.9574665948454448
 31
0.0
  0
LINE
  5
624
330
17
100
AcDbEntity
  8
PAPER
100
AcDbLine
 10
4.208680654796743
 20
1.205891574261351
 30
0.0
 11
6.490612032246341
 21
1.205891574261351
 31
0.0
  0
TEXT
  5
625
330
17
100
AcDbEntity
  8
PAPER
100
AcDbText
 10
5.52980647010974
 20
1.294196491047623
 30
0.0
 40
0.06
  1
TRACK SIZE:
  7
arial1
100
AcDbText
  0
LINE
  5
626
330
17
100
AcDbEntity
  8
PAPER
100
AcDbLine
 10
1.837598686172373
 20
1.258817580632297
 30
0.0
 11
4.208680654796743
 21
1.258817580632297
 31
0.0
  0
LINE
  5
627
330
17
100
AcDbEntity
  8
PAPER
100
AcDbLine
 10
1.837598686172373
 20
1.058117749579336
 30
0.0
 11
4.208680654796743
 21
1.058117749579336
 31
0.0
  0
LINE
  5
628
330
17
100
AcDbEntity
  8
PAPER
100
AcDbLine
 10
1.837598686172373
 20
0.8604134383928377
 30
0.0
 11
4.208680654796743
 21
0.8604134383928377
 31
0.0
  0
LINE
  5
629
330
17
100
AcDbEntity
  8
PAPER
100
AcDbLine
 10
1.845179037511767
 20
1.436448394725808
 30
0.0
 11
1.845179037511767
 21
0.6889893289309269
 31
0.0
  0
LINE
  5
62A
330
17
100
AcDbEntity
  8
PAPER
100
AcDbLine
 10
1.830779037511767
 20
1.436448394725808
 30
0.0
 11
1.830779037511767
 21
0.6889893289309269
 31
0.0
  0
LINE
  5
62B
330
17
100
AcDbEntity
  8
PAPER
100
AcDbLine
 10
1.837979037511768
 20
1.436448394725808
 30
0.0
 11
1.837979037511768
 21
0.6889893289309269
 31
0.0
  0
LINE
  5
62D
330
17
100
AcDbEntity
  8
PAPER
100
AcDbLine
 10
4.208680654796743
 20
0.6888209775701039
 30
0.0
 11
4.208680654796743
 21
1.436984578369171
 31
0.0
  0
LINE
  5
62E
330
17
100
AcDbEntity
  8
PAPER
100
AcDbLine
 10
5.505788172557653
 20
1.205891574261351
 30
0.0
 11
5.505788172557653
 21
1.434095915817824
 31
0.0
  0
TEXT
  5
62F
330
17
100
AcDbEntity
  8
PAPER
100
AcDbText
 10
1.870928287060573
 20
0.7442654702565643
 30
0.0
 40
0.06
  1
CONT:
  7
arial1
100
AcDbText
  0
TEXT
  5
630
330
17
100
AcDbEntity
  8
PAPER
100
AcDbText
 10
1.870928287060573
 20
0.9292878709242538
 30
0.0
 40
0.06
  1
ARCH:
  7
arial1
100
AcDbText
  0
TEXT
  5
631
330
17
100
AcDbEntity
  8
PAPER
100
AcDbText
 10
1.870928287060573
 20
1.129287870924253
 30
0.0
 40
0.06
  1
JOB:
  7
arial1
100
AcDbText
  0
LINE
  5
632
330
17
100
AcDbEntity
  8
PAPER
100
AcDbLine
 10
5.072348353350452
 20
0.7379282409430156
 30
0.0
 11
5.28032184597877
 21
0.7379282409430156
 31
0.0
  0
LINE
  5
633
330
17
100
AcDbEntity
  8
PAPER
100
AcDbLine
 10
5.234105514283588
 20
1.009462520769704
 30
0.0
 11
5.442079006911906
 21
1.009462520769704
 31
0.0
  0
LINE
  5
634
330
17
100
AcDbEntity
  8
PAPER
100
AcDbLine
 10
4.806604446103158
 20
0.7379282409430156
 30
0.0
 11
5.014577938731475
 21
0.7379282409430156
 31
0.0
  0
LINE
  5
635
330
17
100
AcDbEntity
  8
PAPER
100
AcDbLine
 10
4.968361607036293
 20
1.009462520769704
 30
0.0
 11
5.176335099664611
 21
1.009462520769704
 31
0.0
  0
TEXT
  5
636
330
17
100
AcDbEntity
  8
PAPER
100
AcDbText
 10
1.870928287060573
 20
1.317305791458405
 30
0.0
 40
0.06
  1
CUST:
  7
arial1
100
AcDbText
  0
TEXT
  5
637
330
17
100
AcDbEntity
  8
PAPER
100
AcDbText
 10
4.586814105534423
 20
1.285964713656641
 30
0.0
 40
0.06
  1
HIGH LIFT
  7
arial1
100
AcDbText
  0
LINE
  5
638
330
17
100
AcDbEntity
  8
PAPER
100
AcDbLine
 10
9.300739367721106
 20
1.280317702823786
 30
0.0
 11
9.696429867771598
 21
1.280317702823786
 31
0.0
  0
LINE
  5
639
330
17
100
AcDbEntity
  8
PAPER
100
AcDbLine
 10
9.180260937491798
 20
1.062500710995393
 30
0.0
 11
9.690566333712226
 21
1.062500710995393
 31
0.0
  0
LINE
  5
63A
330
17
100
AcDbEntity
  8
PAPER
100
AcDbLine
 10
9.380886582826297
 20
0.8519494085872935
 30
0.0
 11
9.694134902916564
 21
0.8519494085872935
 31
0.0
  0
LINE
  5
63B
330
17
100
AcDbEntity
  8
PAPER
100
AcDbLine
 10
8.129277213047323
 20
0.688820977570104
 30
0.0
 11
8.129277213047323
 21
1.436984578369171
 31
0.0
  0
LINE
  5
63C
330
17
100
AcDbEntity
  8
PAPER
100
AcDbLine
 10
6.490612032246341
 20
0.6888209775701039
 30
0.0
 11
6.490612032246341
 21
1.436984578369171
 31
0.0
  0
LINE
  5
63D
330
17
100
AcDbEntity
  8
PAPER
100
AcDbLine
 10
7.110347728822606
 20
0.8523767027349769
 30
0.0
 11
8.090904821666255
 21
0.8523767027349769
 31
0.0
  0
LINE
  5
63E
330
17
100
AcDbEntity
  8
PAPER
100
AcDbLine
 10
7.570836226335067
 20
1.062629068130666
 30
0.0
 11
8.092106179415516
 21
1.062629068130666
 31
0.0
  0
TEXT
  5
63F
330
17
100
AcDbEntity
  8
PAPER
100
AcDbText
 10
6.523095751879605
 20
0.8711633713566349
 30
0.0
 40
0.06
  1
BACK ROOM:
  7
arial1
100
AcDbText
  0
TEXT
  5
640
330
17
100
AcDbEntity
  8
PAPER
100
AcDbText
 10
6.524297109628866
 20
1.076507856354502
 30
0.0
 40
0.06
  1
OPERATOR BACKROOM:
  7
arial1
100
AcDbText
  0
LINE
  5
641
330
17
100
AcDbEntity
  8
PAPER
100
AcDbLine
 10
6.103550254299195
 20
1.009462520769704
 30
0.0
 11
6.311523746927512
 21
1.009462520769704
 31
0.0
  0
LINE
  5
642
330
17
100
AcDbEntity
  8
PAPER
100
AcDbLine
 10
5.941793093366059
 20
0.7379282409430156
 30
0.0
 11
6.149766585994377
 21
0.7379282409430156
 31
0.0
  0
LINE
  5
643
330
17
100
AcDbEntity
  8
PAPER
100
AcDbLine
 10
5.843583388513797
 20
1.009462520769704
 30
0.0
 11
6.051556881142115
 21
1.009462520769704
 31
0.0
  0
TEXT
  5
644
330
17
100
AcDbEntity
  8
PAPER
100
AcDbText
 10
8.161069016671044
 20
0.8630281021186934
 30
0.0
 40
0.06
  1
HEADROOM REQUIREMENT:
  7
arial1
100
AcDbText
  0
TEXT
  5
645
330
17
100
AcDbEntity
  8
PAPER
100
AcDbText
 10
8.161069016671044
 20
1.073579404526793
 30
0.0
 40
0.06
  1
AVAILABLE HEADROOM:
  7
arial1
100
AcDbText
  0
LINE
  5
646
330
17
100
AcDbEntity
  8
PAPER
100
AcDbLine
 10
7.504074588168658
 20
1.280317702823786
 30
0.0
 11
8.092106179415516
 21
1.280317702823786
 31
0.0
  0
TEXT
  5
647
330
17
100
AcDbEntity
  8
PAPER
100
AcDbText
 10
6.524297109628866
 20
1.294196491047623
 30
0.0
 40
0.06
  1
OPERATOR MODEL #:
  7
arial1
100
AcDbText
  0
TEXT
  5
648
330
17
100
AcDbEntity
  8
PAPER
100
AcDbText
 10
8.163988515711995
 20
1.294196491047623
 30
0.0
 40
0.06
  1
OVERHEAD CLEARANCE:
  7
arial1
100
AcDbText
  0
LINE
  5
649
330
17
100
AcDbEntity
  8
PAPER
100
AcDbLine
 10
9.735072100203822
 20
0.6888209775701039
 30
0.0
 11
9.735072100203822
 21
1.436984578369171
 31
0.0
  0
LINE
  5
64A
330
17
100
AcDbEntity
  8
PAPER
100
AcDbLine
 10
10.06102171562477
 20
0.9307065705044731
 30
0.0
 11
10.76588652302675
 21
0.9307065705044731
 31
0.0
  0
LINE
  5
64B
330
17
100
AcDbEntity
  8
PAPER
100
AcDbLine
 10
10.02578684236564
 20
1.092576421669105
 30
0.0
 11
10.76816671706441
 21
1.092576421669105
 31
0.0
  0
TEXT
  5
64C
330
17
100
AcDbEntity
  8
PAPER
100
AcDbText
 10
10.21502739017514
 20
0.5686854902172859
 30
0.0
 40
0.056
  1
REV. MAY, 2011
  7
arial1
 72
     2
 11
10.8063889181424
 21
0.5686854902172859
 31
0.0
100
AcDbText
  0
TEXT
  5
64D
330
17
100
AcDbEntity
  8
PAPER
100
AcDbText
 10
9.761862189139126
 20
0.7728985691572678
 30
0.0
 40
0.06
  1
PAGE            of
  7
arial1
100
AcDbText
  0
LINE
  5
64E
330
17
100
AcDbEntity
  8
PAPER
100
AcDbLine
 10
10.00515997877182
 20
0.7323590064013324
 30
0.0
 11
10.23089918849977
 21
0.7323590064013324
 31
0.0
  0
TEXT
  5
64F
330
17
100
AcDbEntity
  8
PAPER
100
AcDbText
 10
9.761862189139126
 20
1.1244944204903
 30
0.0
 40
0.06
  1
DATE:
  7
arial1
100
AcDbText
  0
TEXT
  5
650
330
17
100
AcDbEntity
  8
PAPER
100
AcDbText
 10
9.761862189139126
 20
0.9566759945290829
 30
0.0
 40
0.06
  1
BID #:
  7
arial1
100
AcDbText
  0
LINE
  5
651
330
17
100
AcDbEntity
  8
PAPER
100
AcDbLine
 10
10.39963354728631
 20
0.7323590064013324
 30
0.0
 11
10.62537275701426
 21
0.7323590064013324
 31
0.0
  0
TEXT
  5
652
330
17
100
AcDbEntity
  8
PAPER
100
AcDbText
 10
9.769028690630268
 20
1.284827480808006
 30
0.0
 40
0.1008811405475445
  1
SHEET `T-5'
  7
ROMANT
 72
     2
 11
10.77784009610571
 21
1.284827480808006
 31
0.0
100
AcDbText
  0
TEXT
  5
653
330
17
100
AcDbEntity
  8
PAPER
100
AcDbText
 10
0.4110315890142662
 20
4.31990859542642
 30
0.0
 40
0.07
  1
SPRING SIZE AND CONFIGURATION INDIVIDUALLY CALCULATED
  7
arial1
100
AcDbText
  0
TEXT
  5
654
330
17
100
AcDbEntity
  8
PAPER
100
AcDbText
 10
0.4110315890142662
 20
4.207459755044428
 30
0.0
 40
0.07
  1
TO COUNTERBALANCE DOOR LOAD.  AN EXACT SPRING LAYOUT
  7
arial1
100
AcDbText
  0
TEXT
  5
655
330
17
100
AcDbEntity
  8
PAPER
100
AcDbText
 10
0.4110315890142662
 20
4.095010914662436
 30
0.0
 40
0.07
  1
CAN BE FURNISHED UPON APPROVAL OF BID.  SOME DOORS
  7
arial1
100
AcDbText
  0
TEXT
  5
656
330
17
100
AcDbEntity
  8
PAPER
100
AcDbText
 10
0.4110315890142662
 20
3.982562074280444
 30
0.0
 40
0.07
  1
MAY REQUIRE 6" SPRINGS OR DOUBLE SHAFTS.
  7
arial1
100
AcDbText
  0
TEXT
  5
657
330
17
100
AcDbEntity
  8
PAPER
100
AcDbText
 10
0.3270775424072774
 20
4.45441707266232
 30
0.0
 40
0.07
  1
%%uNOTE:
  7
arial1
100
AcDbText
  0
LINE
  5
658
330
17
100
AcDbEntity
  8
PAPER
100
AcDbLine
 10
6.653554245401059
 20
6.525388983438842
 30
0.0
 11
6.653554245401059
 21
4.931819202754891
 31
0.0
  0
LINE
  5
659
330
17
100
AcDbEntity
  8
PAPER
100
AcDbLine
 10
9.606612140936462
 20
4.611700533710408
 30
0.0
 11
9.606612140936462
 21
5.051819202754891
 31
0.0
  0
LINE
  5
65A
330
17
100
AcDbEntity
  8
PAPER
100
AcDbLine
 10
6.723554245401059
 20
4.991819202754891
 30
0.0
 11
7.734375687990179
 21
4.991819202754891
 31
0.0
  0
LINE
  5
65B
330
17
100
AcDbEntity
  8
PAPER
100
AcDbLine
 10
9.536612140936462
 20
4.991819202754891
 30
0.0
 11
8.527763103919212
 21
4.991819202754891
 31
0.0
  0
SOLID
  5
65C
330
17
100
AcDbEntity
  8
PAPER
100
AcDbTrace
 10
6.723554245401059
 20
4.980152536088224
 30
0.0
 11
6.723554245401059
 21
5.003485869421558
 31
0.0
 12
6.653554245401059
 22
4.991819202754891
 32
0.0
 13
6.653554245401059
 23
4.991819202754891
 33
0.0
  0
SOLID
  5
65D
330
17
100
AcDbEntity
  8
PAPER
100
AcDbTrace
 10
9.536612140936462
 20
4.980152536088224
 30
0.0
 11
9.536612140936462
 21
5.003485869421558
 31
0.0
 12
9.606612140936462
 22
4.991819202754891
 32
0.0
 13
9.606612140936462
 23
4.991819202754891
 33
0.0
  0
TEXT
  5
65E
330
17
100
AcDbEntity
  8
PAPER
100
AcDbText
 10
7.836873768000558
 20
4.956819202754891
 30
0.0
 40
0.07
  1
BACK ROOM
  7
arial1
100
AcDbText
  0
LINE
  5
65F
330
17
100
AcDbEntity
  8
PAPER
100
AcDbLine
 10
9.447315232858352
 20
7.187466992473666
 30
0.0
 11
10.46983551118686
 21
7.187466992473666
 31
0.0
  0
LINE
  5
660
330
17
100
AcDbEntity
  8
PAPER
100
AcDbLine
 10
10.40983551118686
 20
5.456516880803738
 30
0.0
 11
10.40983551118686
 21
5.948658603305369
 31
0.0
  0
LINE
  5
661
330
17
100
AcDbEntity
  8
PAPER
100
AcDbLine
 10
10.40983551118686
 20
7.117466992473666
 30
0.0
 11
10.40983551118686
 21
6.625325269972035
 31
0.0
  0
SOLID
  5
662
330
17
100
AcDbEntity
  8
PAPER
100
AcDbTrace
 10
10.42150217785353
 20
5.456516880803738
 30
0.0
 11
10.39816884452019
 21
5.456516880803738
 31
0.0
 12
10.40983551118686
 22
5.386516880803738
 32
0.0
 13
10.40983551118686
 23
5.386516880803738
 33
0.0
  0
SOLID
  5
663
330
17
100
AcDbEntity
  8
PAPER
100
AcDbTrace
 10
10.42150217785353
 20
7.117466992473666
 30
0.0
 11
10.39816884452019
 21
7.117466992473666
 31
0.0
 12
10.40983551118686
 22
7.187466992473666
 32
0.0
 13
10.40983551118686
 23
7.187466992473666
 33
0.0
  0
TEXT
  5
664
330
17
100
AcDbEntity
  8
PAPER
100
AcDbText
 10
10.44483551118686
 20
6.018658603305368
 30
0.0
 40
0.07
  1
HEADROOM
 50
90.0
  7
arial1
100
AcDbText
  0
LINE
  5
665
330
17
100
AcDbEntity
  8
PAPER
100
AcDbLine
 10
6.563554245401059
 20
6.615388983438842
 30
0.0
 11
6.318777426074724
 21
6.615388983438842
 31
0.0
  0
LINE
  5
666
330
17
100
AcDbEntity
  8
PAPER
100
AcDbLine
 10
6.378777426074724
 20
5.456516880803739
 30
0.0
 11
6.378777426074724
 21
5.72095293212129
 31
0.0
  0
LINE
  5
667
330
17
100
AcDbEntity
  8
PAPER
100
AcDbLine
 10
6.378777426074724
 20
6.545388983438842
 30
0.0
 11
6.378777426074724
 21
6.280952932121291
 31
0.0
  0
SOLID
  5
668
330
17
100
AcDbEntity
  8
PAPER
100
AcDbTrace
 10
6.390444092741391
 20
5.456516880803739
 30
0.0
 11
6.367110759408057
 21
5.456516880803739
 31
0.0
 12
6.378777426074724
 22
5.386516880803739
 32
0.0
 13
6.378777426074724
 23
5.386516880803739
 33
0.0
  0
SOLID
  5
669
330
17
100
AcDbEntity
  8
PAPER
100
AcDbTrace
 10
6.390444092741391
 20
6.545388983438842
 30
0.0
 11
6.367110759408057
 21
6.545388983438842
 31
0.0
 12
6.378777426074724
 22
6.615388983438842
 32
0.0
 13
6.378777426074724
 23
6.615388983438842
 33
0.0
  0
TEXT
  5
66A
330
17
100
AcDbEntity
  8
PAPER
100
AcDbText
 10
6.413777426074724
 20
5.790952932121291
 30
0.0
 40
0.07
  1
HI-LIFT
 50
90.0
  7
arial1
100
AcDbText
  0
SOLID
  5
6E7
330
17
100
AcDbEntity
  8
PAPER
100
AcDbTrace
 10
4.722174577091666
 20
3.024886656670813
 30
0.0
 11
4.701161448090492
 21
3.035030268159061
 31
0.0
 12
4.681237178126337
 22
2.966919075411418
 32
0.0
 13
4.681237178126337
 23
2.966919075411418
 33
0.0
  0
LINE
  5
6E8
330
17
100
AcDbEntity
  8
PAPER
100
AcDbLine
 10
4.71166801259108
 20
3.029958462414937
 30
0.0
 11
4.899306315691787
 21
3.418663005484685
 31
0.0
  0
LINE
  5
6E9
330
17
100
AcDbEntity
  8
PAPER
100
AcDbLine
 10
4.899306315691787
 20
3.418663005484685
 30
0.0
 11
4.969306315691787
 21
3.418663005484685
 31
0.0
  0
TEXT
  5
6EA
330
17
100
AcDbEntity
  8
PAPER
100
AcDbText
 10
4.995774554663859
 20
3.386222796230079
 30
0.0
 40
0.07
  1
SHAFT CENTERLINE = DH + HI-LIFT + 7" 
  7
arial1
100
AcDbText
  0
ENDSEC
  0
SECTION
  2
OBJECTS
  0
DICTIONARY
  5
C
330
0
100
AcDbDictionary
281
     1
  3
ACAD_COLOR
350
6BA
  3
ACAD_GROUP
350
D
  3
ACAD_LAYOUT
350
5D9
  3
ACAD_MATERIAL
350
688
  3
ACAD_MLEADERSTYLE
350
6CF
  3
ACAD_MLINESTYLE
350
1A
  3
ACAD_PLOTSETTINGS
350
5DA
  3
ACAD_PLOTSTYLENAME
350
5D7
  3
ACAD_SCALELIST
350
6BD
  3
ACAD_TABLESTYLE
350
6BB
  3
ACAD_VISUALSTYLE
350
6A1
  3
ACDB_RECOMPOSE_DATA
350
74A
  3
ACDBVARIABLEDICTIONARY
350
35
  0
DICTIONARY
  5
6DD
330
2
100
AcDbDictionary
280
     1
281
     1
  3
ACAD_LAYERSTATES
360
6DE
  0
DICTIONARY
  5
6EB
330
E
100
AcDbDictionary
280
     1
281
     1
  3
ADSK_XREC_LAYER_RECONCILED
360
6EC
  0
DICTIONARY
  5
6ED
330
2A
100
AcDbDictionary
280
     1
281
     1
  3
ADSK_XREC_LAYER_RECONCILED
360
6EE
  0
DICTIONARY
  5
6EF
330
2D
100
AcDbDictionary
280
     1
281
     1
  3
ADSK_XREC_LAYER_RECONCILED
360
6F0
  0
DICTIONARY
  5
6BA
102
{ACAD_REACTORS
330
C
102
}
330
C
100
AcDbDictionary
281
     1
  0
DICTIONARY
  5
D
102
{ACAD_REACTORS
330
C
102
}
330
C
100
AcDbDictionary
281
     1
  0
DICTIONARY
  5
5D9
102
{ACAD_REACTORS
330
C
102
}
330
C
100
AcDbDictionary
281
     1
  3
Layout1
350
5DC
  3
Model
350
5DB
  0
DICTIONARY
  5
688
102
{ACAD_REACTORS
330
C
102
}
330
C
100
AcDbDictionary
281
     1
  3
ByBlock
350
691
  3
ByLayer
350
689
  3
Global
350
699
  0
DICTIONARY
  5
6CF
102
{ACAD_REACTORS
330
C
102
}
330
C
100
AcDbDictionary
281
     1
  3
Standard
350
6D0
  0
DICTIONARY
  5
1A
102
{ACAD_REACTORS
330
C
102
}
330
C
100
AcDbDictionary
281
     1
  3
STANDARD
350
1B
  0
DICTIONARY
  5
5DA
102
{ACAD_REACTORS
330
C
102
}
330
C
100
AcDbDictionary
281
     1
  0
ACDBDICTIONARYWDFLT
  5
5D7
102
{ACAD_REACTORS
330
C
102
}
330
C
100
AcDbDictionary
281
     1
  3
Normal
350
5D8
100
AcDbDictionaryWithDefault
340
5D8
  0
DICTIONARY
  5
6BD
102
{ACAD_REACTORS
330
C
102
}
330
C
100
AcDbDictionary
281
     1
  3
A0
350
6BE
  3
A1
350
6BF
  3
A2
350
6C0
  3
A3
350
6C1
  3
A4
350
6C2
  3
A5
350
6C3
  3
A6
350
6C4
  3
A7
350
6C5
  3
A8
350
6C6
  3
A9
350
6C7
  3
B0
350
6C8
  3
B1
350
6C9
  3
B2
350
6CA
  3
B3
350
6CB
  3
B4
350
6CC
  3
B5
350
6CD
  3
B6
350
6CE
  0
DICTIONARY
  5
6BB
102
{ACAD_REACTORS
330
C
102
}
330
C
100
AcDbDictionary
281
     1
  3
Standard
350
6BC
  0
DICTIONARY
  5
6A1
102
{ACAD_REACTORS
330
C
102
}
330
C
100
AcDbDictionary
281
     1
  3
2dWireframe
350
6A7
  3
Basic
350
6A6
  3
Brighten
350
6AD
  3
ColorChange
350
6B1
  3
Conceptual
350
6AA
  3
Dim
350
6AC
  3
EdgeColorOff
350
6B9
  3
Facepattern
350
6B0
  3
Flat
350
6A2
  3
FlatWithEdges
350
6A3
  3
Gouraud
350
6A4
  3
GouraudWithEdges
350
6A5
  3
Hidden
350
6A9
  3
JitterOff
350
6B7
  3
Linepattern
350
6AF
  3
OverhangOff
350
6B8
  3
Realistic
350
6AB
  3
Shaded
350
6B6
  3
Shaded with edges
350
6B5
  3
Shades of Gray
350
6B2
  3
Sketchy
350
6B3
  3
Thicken
350
6AE
  3
Wireframe
350
6A8
  3
X-Ray
350
6B4
  0
XRECORD
  5
74A
102
{ACAD_REACTORS
330
C
102
}
330
C
100
AcDbXrecord
280
     1
 90
        1
330
6BC
  0
DICTIONARY
  5
35
102
{ACAD_REACTORS
330
C
102
}
330
C
100
AcDbDictionary
281
     1
  3
CANNOSCALE
350
743
  3
CMLEADERSTYLE
350
741
  3
CTABLESTYLE
350
740
  3
DIMADEC
350
36
  3
LAYEREVAL
350
745
  3
LAYERNOTIFY
350
746
  3
LIGHTINGUNITS
350
744
  3
MSLTSCALE
350
742
  3
XCLIPFRAME
350
747
  0
DICTIONARY
  5
6DE
102
{ACAD_REACTORS
330
6DD
102
}
330
6DD
100
AcDbDictionary
281
     1
  0
XRECORD
  5
6EC
102
{ACAD_REACTORS
330
6EB
102
}
330
6EB
100
AcDbXrecord
280
     1
290
     1
  0
XRECORD
  5
6EE
102
{ACAD_REACTORS
330
6ED
102
}
330
6ED
100
AcDbXrecord
280
     1
290
     1
  0
XRECORD
  5
6F0
102
{ACAD_REACTORS
330
6EF
102
}
330
6EF
100
AcDbXrecord
280
     1
290
     1
  0
LAYOUT
  5
5DC
102
{ACAD_REACTORS
330
5D9
102
}
330
5D9
100
AcDbPlotSettings
  1

  2
\\CLOPAY\rus_engrec_pq
  4

  6

 40
0.0
 41
0.0
 42
0.0
 43
0.0
 44
0.0
 45
0.0
 46
0.0
 47
0.0
 48
0.0
 49
0.0
140
0.0
141
0.0
142
1.0
143
1.0
 70
   688
 72
     0
 73
     0
 74
     5
  7
monochrome.ctb
 75
    16
147
1.0
 76
     0
 77
     2
 78
   300
148
0.0
149
0.0
100
AcDbLayout
  1
Layout1
 70
     0
 71
     1
 10
0.0
 20
0.0
 11
12.0
 21
9.0
 12
0.0
 22
0.0
 32
0.0
 14
1.000000000000000E+20
 24
1.000000000000000E+20
 34
1.000000000000000E+20
 15
-1.000000000000000E+20
 25
-1.000000000000000E+20
 35
-1.000000000000000E+20
146
0.0
 13
0.0
 23
0.0
 33
0.0
 16
1.0
 26
0.0
 36
0.0
 17
0.0
 27
1.0
 37
0.0
 76
     0
330
14
  0
LAYOUT
  5
5DB
102
{ACAD_XDICTIONARY
360
702
102
}
102
{ACAD_REACTORS
330
5D9
102
}
330
5D9
100
AcDbPlotSettings
  1

  2
none_device
  4
Letter_(8.50_x_11.00_Inches)
  6

 40
6.349999904632568
 41
6.349999904632568
 42
6.350006103515625
 43
6.350006103515625
 44
215.8999938964844
 45
279.3999938964844
 46
0.0
 47
0.0
 48
0.0
 49
0.0
140
0.0
141
0.0
142
1.0
143
1.319965447259692
 70
 11952
 72
     0
 73
     1
 74
     0
  7
monochrome.ctb
 75
     0
147
0.7575955886391155
 76
     0
 77
     2
 78
   300
148
45.39482355337009
149
12.57756206591271
100
AcDbLayout
  1
Model
 70
     1
 71
     0
 10
0.0
 20
0.0
 11
12.0
 21
9.0
 12
0.0
 22
0.0
 32
0.0
 14
0.0
 24
0.0
 34
0.0
 15
0.0
 25
0.0
 35
0.0
146
0.0
 13
0.0
 23
0.0
 33
0.0
 16
1.0
 26
0.0
 36
0.0
 17
0.0
 27
1.0
 37
0.0
 76
     0
330
17
331
686
1001
ACAD_PSEXT
1000
None
1000
None
1000
Not applicable
1000
The layout will not be plotted unless a new plotter configuration name is selected.
1070
     0
  0
MATERIAL
  5
691
102
{ACAD_XDICTIONARY
360
692
102
}
102
{ACAD_REACTORS
330
688
102
}
330
688
100
AcDbMaterial
  1
ByBlock
 72
     0
 43
0.0208333333333333
 43
0.0
 43
0.0
 43
0.0
 43
0.0
 43
0.0208333333333333
 43
0.0
 43
0.0
 43
0.0
 43
0.0
 43
1.0
 43
0.0
 43
0.0
 43
0.0
 43
0.0
 43
1.0
 77
     0
 47
0.0208333333333333
 47
0.0
 47
0.0
 47
0.0
 47
0.0
 47
0.0208333333333333
 47
0.0
 47
0.0
 47
0.0
 47
0.0
 47
1.0
 47
0.0
 47
0.0
 47
0.0
 47
0.0
 47
1.0
171
     0
 49
0.0208333333333333
 49
0.0
 49
0.0
 49
0.0
 49
0.0
 49
0.0208333333333333
 49
0.0
 49
0.0
 49
0.0
 49
0.0
 49
1.0
 49
0.0
 49
0.0
 49
0.0
 49
0.0
 49
1.0
175
     0
142
0.0208333333333333
142
0.0
142
0.0
142
0.0
142
0.0
142
0.0208333333333333
142
0.0
142
0.0
142
0.0
142
0.0
142
1.0
142
0.0
142
0.0
142
0.0
142
0.0
142
1.0
179
     0
144
0.0208333333333333
144
0.0
144
0.0
144
0.0
144
0.0
144
0.0208333333333333
144
0.0
144
0.0
144
0.0
144
0.0
144
1.0
144
0.0
144
0.0
144
0.0
144
0.0
144
1.0
147
0.0208333333333333
147
0.0
147
0.0
147
0.0
147
0.0
147
0.0208333333333333
147
0.0
147
0.0
147
0.0
147
0.0
147
1.0
147
0.0
147
0.0
147
0.0
147
0.0
147
1.0
  0
MATERIAL
  5
689
102
{ACAD_XDICTIONARY
360
68A
102
}
102
{ACAD_REACTORS
330
688
102
}
330
688
100
AcDbMaterial
  1
ByLayer
 72
     0
 43
0.0208333333333333
 43
0.0
 43
0.0
 43
0.0
 43
0.0
 43
0.0208333333333333
 43
0.0
 43
0.0
 43
0.0
 43
0.0
 43
1.0
 43
0.0
 43
0.0
 43
0.0
 43
0.0
 43
1.0
 77
     0
 47
0.0208333333333333
 47
0.0
 47
0.0
 47
0.0
 47
0.0
 47
0.0208333333333333
 47
0.0
 47
0.0
 47
0.0
 47
0.0
 47
1.0
 47
0.0
 47
0.0
 47
0.0
 47
0.0
 47
1.0
171
     0
 49
0.0208333333333333
 49
0.0
 49
0.0
 49
0.0
 49
0.0
 49
0.0208333333333333
 49
0.0
 49
0.0
 49
0.0
 49
0.0
 49
1.0
 49
0.0
 49
0.0
 49
0.0
 49
0.0
 49
1.0
175
     0
142
0.0208333333333333
142
0.0
142
0.0
142
0.0
142
0.0
142
0.0208333333333333
142
0.0
142
0.0
142
0.0
142
0.0
142
1.0
142
0.0
142
0.0
142
0.0
142
0.0
142
1.0
179
     0
144
0.0208333333333333
144
0.0
144
0.0
144
0.0
144
0.0
144
0.0208333333333333
144
0.0
144
0.0
144
0.0
144
0.0
144
1.0
144
0.0
144
0.0
144
0.0
144
0.0
144
1.0
147
0.0208333333333333
147
0.0
147
0.0
147
0.0
147
0.0
147
0.0208333333333333
147
0.0
147
0.0
147
0.0
147
0.0
147
1.0
147
0.0
147
0.0
147
0.0
147
0.0
147
1.0
  0
MATERIAL
  5
699
102
{ACAD_XDICTIONARY
360
69A
102
}
102
{ACAD_REACTORS
330
688
102
}
330
688
100
AcDbMaterial
  1
Global
 72
     0
 43
0.0208333333333333
 43
0.0
 43
0.0
 43
0.0
 43
0.0
 43
0.0208333333333333
 43
0.0
 43
0.0
 43
0.0
 43
0.0
 43
1.0
 43
0.0
 43
0.0
 43
0.0
 43
0.0
 43
1.0
 77
     0
 47
0.0208333333333333
 47
0.0
 47
0.0
 47
0.0
 47
0.0
 47
0.0208333333333333
 47
0.0
 47
0.0
 47
0.0
 47
0.0
 47
1.0
 47
0.0
 47
0.0
 47
0.0
 47
0.0
 47
1.0
171
     0
 49
0.0208333333333333
 49
0.0
 49
0.0
 49
0.0
 49
0.0
 49
0.0208333333333333
 49
0.0
 49
0.0
 49
0.0
 49
0.0
 49
1.0
 49
0.0
 49
0.0
 49
0.0
 49
0.0
 49
1.0
175
     0
142
0.0208333333333333
142
0.0
142
0.0
142
0.0
142
0.0
142
0.0208333333333333
142
0.0
142
0.0
142
0.0
142
0.0
142
1.0
142
0.0
142
0.0
142
0.0
142
0.0
142
1.0
179
     0
144
0.0208333333333333
144
0.0
144
0.0
144
0.0
144
0.0
144
0.0208333333333333
144
0.0
144
0.0
144
0.0
144
0.0
144
1.0
144
0.0
144
0.0
144
0.0
144
0.0
144
1.0
147
0.0208333333333333
147
0.0
147
0.0
147
0.0
147
0.0
147
0.0208333333333333
147
0.0
147
0.0
147
0.0
147
0.0
147
1.0
147
0.0
147
0.0
147
0.0
147
0.0
147
1.0
  0
MLEADERSTYLE
  5
6D0
102
{ACAD_REACTORS
330
6CF
102
}
330
6CF
100
AcDbMLeaderStyle
170
     2
171
     1
172
     0
 90
        2
 40
0.0
 41
0.0
173
     1
 91
-1056964608
340
11
 92
       -2
290
     1
 42
0.09
291
     1
 43
0.36
  3
Standard
 44
0.18
300

342
F
174
     1
178
     6
175
     1
176
     0
 93
-1056964608
 45
0.18
292
     0
297
     0
 46
0.18
 94
-1056964608
 47
1.0
 49
1.0
140
1.0
293
     1
141
0.0
294
     1
177
     0
142
1.0
295
     0
296
     0
143
0.125
1001
ACAD_MLEADERVER
1070
     2
  0
MLINESTYLE
  5
1B
102
{ACAD_REACTORS
330
1A
102
}
330
1A
100
AcDbMlineStyle
  2
STANDARD
 70
     0
  3

 62
   256
 51
90.0
 52
90.0
 71
     2
 49
0.5
 62
   256
  6
BYLAYER
 49
-0.5
 62
   256
  6
BYLAYER
  0
ACDBPLACEHOLDER
  5
5D8
102
{ACAD_REACTORS
330
5D7
102
}
330
5D7
  0
SCALE
  5
6BE
102
{ACAD_REACTORS
330
6BD
102
}
330
6BD
100
AcDbScale
 70
     0
300
1:1
140
1.0
141
1.0
290
     1
  0
SCALE
  5
6BF
102
{ACAD_REACTORS
330
6BD
102
}
330
6BD
100
AcDbScale
 70
     0
300
1/128" = 1'-0"
140
0.0078125
141
12.0
290
     0
  0
SCALE
  5
6C0
102
{ACAD_REACTORS
330
6BD
102
}
330
6BD
100
AcDbScale
 70
     0
300
1/64" = 1'-0"
140
0.015625
141
12.0
290
     0
  0
SCALE
  5
6C1
102
{ACAD_REACTORS
330
6BD
102
}
330
6BD
100
AcDbScale
 70
     0
300
1/32" = 1'-0"
140
0.03125
141
12.0
290
     0
  0
SCALE
  5
6C2
102
{ACAD_REACTORS
330
6BD
102
}
330
6BD
100
AcDbScale
 70
     0
300
1/16" = 1'-0"
140
0.0625
141
12.0
290
     0
  0
SCALE
  5
6C3
102
{ACAD_REACTORS
330
6BD
102
}
330
6BD
100
AcDbScale
 70
     0
300
3/32" = 1'-0"
140
0.09375
141
12.0
290
     0
  0
SCALE
  5
6C4
102
{ACAD_REACTORS
330
6BD
102
}
330
6BD
100
AcDbScale
 70
     0
300
1/8" = 1'-0"
140
0.125
141
12.0
290
     0
  0
SCALE
  5
6C5
102
{ACAD_REACTORS
330
6BD
102
}
330
6BD
100
AcDbScale
 70
     0
300
3/16" = 1'-0"
140
0.1875
141
12.0
290
     0
  0
SCALE
  5
6C6
102
{ACAD_REACTORS
330
6BD
102
}
330
6BD
100
AcDbScale
 70
     0
300
1/4" = 1'-0"
140
0.25
141
12.0
290
     0
  0
SCALE
  5
6C7
102
{ACAD_REACTORS
330
6BD
102
}
330
6BD
100
AcDbScale
 70
     0
300
3/8" = 1'-0"
140
0.375
141
12.0
290
     0
  0
SCALE
  5
6C8
102
{ACAD_REACTORS
330
6BD
102
}
330
6BD
100
AcDbScale
 70
     0
300
1/2" = 1'-0"
140
0.5
141
12.0
290
     0
  0
SCALE
  5
6C9
102
{ACAD_REACTORS
330
6BD
102
}
330
6BD
100
AcDbScale
 70
     0
300
3/4" = 1'-0"
140
0.75
141
12.0
290
     0
  0
SCALE
  5
6CA
102
{ACAD_REACTORS
330
6BD
102
}
330
6BD
100
AcDbScale
 70
     0
300
1" = 1'-0"
140
1.0
141
12.0
290
     0
  0
SCALE
  5
6CB
102
{ACAD_REACTORS
330
6BD
102
}
330
6BD
100
AcDbScale
 70
     0
300
1-1/2" = 1'-0"
140
1.5
141
12.0
290
     0
  0
SCALE
  5
6CC
102
{ACAD_REACTORS
330
6BD
102
}
330
6BD
100
AcDbScale
 70
     0
300
3" = 1'-0"
140
3.0
141
12.0
290
     0
  0
SCALE
  5
6CD
102
{ACAD_REACTORS
330
6BD
102
}
330
6BD
100
AcDbScale
 70
     0
300
6" = 1'-0"
140
6.0
141
12.0
290
     0
  0
SCALE
  5
6CE
102
{ACAD_REACTORS
330
6BD
102
}
330
6BD
100
AcDbScale
 70
     0
300
1'-0" = 1'-0"
140
12.0
141
12.0
290
     0
  0
TABLESTYLE
  5
6BC
102
{ACAD_XDICTIONARY
360
748
102
}
102
{ACAD_REACTORS
330
6BB
102
}
330
6BB
100
AcDbTableStyle
  3
Standard
 70
     0
 71
     0
 40
0.06
 41
0.06
280
     0
281
     0
  7
S
140
0.18
170
     2
 62
     0
 63
     7
283
     0
 90
      512
 91
        0
  1

274
    -2
284
     1
 64
     0
275
    -2
285
     1
 65
     0
276
    -2
286
     1
 66
     0
277
    -2
287
     1
 67
     0
278
    -2
288
     1
 68
     0
279
    -2
289
     1
 69
     0
  7
S
140
0.25
170
     5
 62
     0
 63
     7
283
     0
 90
      512
 91
        0
  1

274
    -2
284
     1
 64
     0
275
    -2
285
     1
 65
     0
276
    -2
286
     1
 66
     0
277
    -2
287
     1
 67
     0
278
    -2
288
     1
 68
     0
279
    -2
289
     1
 69
     0
  7
S
140
0.18
170
     5
 62
     0
 63
     7
283
     0
 90
      512
 91
        0
  1

274
    -2
284
     1
 64
     0
275
    -2
285
     1
 65
     0
276
    -2
286
     1
 66
     0
277
    -2
287
     1
 67
     0
278
    -2
288
     1
 68
     0
279
    -2
289
     1
 69
     0
  0
VISUALSTYLE
  5
6A7
102
{ACAD_XDICTIONARY
360
755
102
}
102
{ACAD_REACTORS
330
6A1
102
}
330
6A1
100
AcDbVisualStyle
  2
2dWireframe
 70
     4
 71
     0
 72
     2
 73
     0
 90
        0
 40
-0.6
 41
-30.0
 62
     5
 63
     7
421
 16777215
 74
     1
 91
        4
 64
     7
 65
   257
 75
     1
175
     1
 42
1.0
 92
        0
 66
   257
 43
1.0
 76
     1
 77
     6
 78
     2
 67
     7
 79
     5
170
     0
171
     0
290
     0
174
     0
 93
        1
 44
0.0
173
     0
291
     0
 45
0.0
1001
ACAD
1000
AcDbSavedByObjectVersion
1070
     0
  0
VISUALSTYLE
  5
6A6
102
{ACAD_XDICTIONARY
360
753
102
}
102
{ACAD_REACTORS
330
6A1
102
}
330
6A1
100
AcDbVisualStyle
  2
Basic
 70
     7
 71
     1
 72
     0
 73
     1
 90
        0
 40
-0.6
 41
-30.0
 62
     5
 63
     7
421
 16777215
 74
     0
 91
        4
 64
     7
 65
   257
 75
     1
175
     1
 42
1.0
 92
        8
 66
     7
 43
1.0
 76
     1
 77
     6
 78
     2
 67
     7
 79
     5
170
     0
171
     0
290
     0
174
     0
 93
        1
 44
0.0
173
     0
291
     1
 45
0.0
1001
ACAD
1000
AcDbSavedByObjectVersion
1070
     0
  0
VISUALSTYLE
  5
6AD
102
{ACAD_XDICTIONARY
360
761
102
}
102
{ACAD_REACTORS
330
6A1
102
}
330
6A1
100
AcDbVisualStyle
  2
Brighten
 70
    12
 71
     2
 72
     2
 73
     0
 90
        0
 40
-0.6
 41
-30.0
 62
     5
 63
     7
421
 16777215
 74
     1
 91
        4
 64
     7
 65
   257
 75
     1
175
     1
 42
1.0
 92
        8
 66
     7
 43
1.0
 76
     1
 77
     6
 78
     2
 67
     7
 79
     5
170
     0
171
     0
290
     0
174
     0
 93
        1
 44
50.0
173
     0
291
     1
 45
0.0
1001
ACAD
1000
AcDbSavedByObjectVersion
1070
     0
  0
VISUALSTYLE
  5
6B1
102
{ACAD_XDICTIONARY
360
769
102
}
102
{ACAD_REACTORS
330
6A1
102
}
330
6A1
100
AcDbVisualStyle
  2
ColorChange
 70
    16
 71
     2
 72
     2
 73
     3
 90
        0
 40
-0.6
 41
-30.0
 62
     5
 63
     8
421
  8421504
 74
     1
 91
        4
 64
     7
 65
   257
 75
     1
175
     1
 42
1.0
 92
        8
 66
     8
424
  8421504
 43
1.0
 76
     1
 77
     6
 78
     2
 67
     7
 79
     5
170
     0
171
     0
290
     0
174
     0
 93
        1
 44
0.0
173
     0
291
     1
 45
0.0
1001
ACAD
1000
AcDbSavedByObjectVersion
1070
     0
  0
VISUALSTYLE
  5
6AA
102
{ACAD_XDICTIONARY
360
75B
102
}
102
{ACAD_REACTORS
330
6A1
102
}
330
6A1
100
AcDbVisualStyle
  2
Conceptual
 70
     9
 71
     3
 72
     2
 73
     0
 90
        0
 40
-0.6
 41
-30.0
 62
     5
 63
     7
421
 16777215
 74
     2
 91
        2
 64
     7
 65
   257
 75
     1
175
     1
 42
179.0
 92
        8
 66
     7
 43
1.0
 76
     1
 77
     6
 78
     2
 67
     7
 79
     3
170
     0
171
     0
290
     0
174
     0
 93
        1
 44
0.0
173
     0
291
     0
 45
0.0
1001
ACAD
1000
AcDbSavedByObjectVersion
1070
     0
  0
VISUALSTYLE
  5
6AC
102
{ACAD_XDICTIONARY
360
75F
102
}
102
{ACAD_REACTORS
330
6A1
102
}
330
6A1
100
AcDbVisualStyle
  2
Dim
 70
    11
 71
     2
 72
     2
 73
     0
 90
        0
 40
-0.6
 41
-30.0
 62
     5
 63
     7
421
 16777215
 74
     1
 91
        4
 64
     7
 65
   257
 75
     1
175
     1
 42
1.0
 92
        8
 66
     7
 43
1.0
 76
     1
 77
     6
 78
     2
 67
     7
 79
     5
170
     0
171
     0
290
     0
174
     0
 93
        1
 44
-50.0
173
     0
291
     1
 45
0.0
1001
ACAD
1000
AcDbSavedByObjectVersion
1070
     0
  0
VISUALSTYLE
  5
6B9
102
{ACAD_XDICTIONARY
360
779
102
}
102
{ACAD_REACTORS
330
6A1
102
}
330
6A1
100
AcDbVisualStyle
  2
EdgeColorOff
 70
    22
 71
     2
 72
     2
 73
     0
 90
        0
 40
-0.6
 41
-30.0
 62
     5
 63
     7
421
 16777215
 74
     1
 91
        4
 64
     7
 65
   257
 75
     1
175
     1
 42
1.0
 92
        8
 66
     7
 43
1.0
 76
     1
 77
     6
 78
     2
 67
     7
 79
     5
170
     0
171
     0
290
     0
174
     0
 93
        1
 44
0.0
173
     0
291
     1
 45
0.0
1001
ACAD
1000
AcDbSavedByObjectVersion
1070
     0
  0
VISUALSTYLE
  5
6B0
102
{ACAD_XDICTIONARY
360
767
102
}
102
{ACAD_REACTORS
330
6A1
102
}
330
6A1
100
AcDbVisualStyle
  2
Facepattern
 70
    15
 71
     2
 72
     2
 73
     0
 90
        0
 40
-0.6
 41
-30.0
 62
     5
 63
     7
421
 16777215
 74
     1
 91
        4
 64
     7
 65
   257
 75
     1
175
     1
 42
1.0
 92
        8
 66
     7
 43
1.0
 76
     1
 77
     6
 78
     2
 67
     7
 79
     5
170
     0
171
     0
290
     0
174
     0
 93
        1
 44
0.0
173
     0
291
     1
 45
0.0
1001
ACAD
1000
AcDbSavedByObjectVersion
1070
     0
  0
VISUALSTYLE
  5
6A2
102
{ACAD_XDICTIONARY
360
74B
102
}
102
{ACAD_REACTORS
330
6A1
102
}
330
6A1
100
AcDbVisualStyle
  2
Flat
 70
     0
 71
     2
 72
     1
 73
     1
 90
        2
 40
-0.6
 41
30.0
 62
     5
 63
     7
421
 16777215
 74
     0
 91
        0
 64
     7
 65
   257
 75
     1
175
     1
 42
1.0
 92
        8
 66
     7
 43
1.0
 76
     1
 77
     6
 78
     2
 67
     7
 79
     5
170
     0
171
     0
290
     0
174
     0
 93
       13
 44
0.0
173
     0
291
     1
 45
0.0
1001
ACAD
1000
AcDbSavedByObjectVersion
1070
     0
  0
VISUALSTYLE
  5
6A3
102
{ACAD_XDICTIONARY
360
74D
102
}
102
{ACAD_REACTORS
330
6A1
102
}
330
6A1
100
AcDbVisualStyle
  2
FlatWithEdges
 70
     1
 71
     2
 72
     1
 73
     1
 90
        2
 40
-0.6
 41
30.0
 62
     5
 63
     7
421
 16777215
 74
     1
 91
        0
 64
     7
 65
   257
 75
     1
175
     1
 42
1.0
 92
        0
 66
   257
 43
1.0
 76
     1
 77
     6
 78
     2
 67
     7
 79
     5
170
     0
171
     0
290
     0
174
     0
 93
       13
 44
0.0
173
     0
291
     1
 45
0.0
1001
ACAD
1000
AcDbSavedByObjectVersion
1070
     0
  0
VISUALSTYLE
  5
6A4
102
{ACAD_XDICTIONARY
360
74F
102
}
102
{ACAD_REACTORS
330
6A1
102
}
330
6A1
100
AcDbVisualStyle
  2
Gouraud
 70
     2
 71
     2
 72
     2
 73
     1
 90
        2
 40
-0.6
 41
30.0
 62
     5
 63
     7
421
 16777215
 74
     0
 91
        0
 64
     7
 65
   257
 75
     1
175
     1
 42
1.0
 92
        0
 66
     7
 43
1.0
 76
     1
 77
     6
 78
     2
 67
     7
 79
     5
170
     0
171
     0
290
     0
174
     0
 93
       13
 44
0.0
173
     0
291
     1
 45
0.0
1001
ACAD
1000
AcDbSavedByObjectVersion
1070
     0
  0
VISUALSTYLE
  5
6A5
102
{ACAD_XDICTIONARY
360
751
102
}
102
{ACAD_REACTORS
330
6A1
102
}
330
6A1
100
AcDbVisualStyle
  2
GouraudWithEdges
 70
     3
 71
     2
 72
     2
 73
     1
 90
        2
 40
-0.6
 41
30.0
 62
     5
 63
     7
421
 16777215
 74
     1
 91
        0
 64
     7
 65
   257
 75
     1
175
     1
 42
1.0
 92
        0
 66
   257
 43
1.0
 76
     1
 77
     6
 78
     2
 67
     7
 79
     5
170
     0
171
     0
290
     0
174
     0
 93
       13
 44
0.0
173
     0
291
     1
 45
0.0
1001
ACAD
1000
AcDbSavedByObjectVersion
1070
     0
  0
VISUALSTYLE
  5
6A9
102
{ACAD_XDICTIONARY
360
759
102
}
102
{ACAD_REACTORS
330
6A1
102
}
330
6A1
100
AcDbVisualStyle
  2
Hidden
 70
     6
 71
     1
 72
     2
 73
     2
 90
        0
 40
-0.6
 41
-30.0
 62
     5
 63
     7
421
 16777215
 74
     2
 91
        2
 64
     7
 65
   257
 75
     2
175
     1
 42
40.0
 92
        0
 66
   257
 43
1.0
 76
     1
 77
     6
 78
     2
 67
     7
 79
     3
170
     0
171
     0
290
     0
174
     0
 93
        1
 44
0.0
173
     0
291
     0
 45
0.0
1001
ACAD
1000
AcDbSavedByObjectVersion
1070
     0
  0
VISUALSTYLE
  5
6B7
102
{ACAD_XDICTIONARY
360
775
102
}
102
{ACAD_REACTORS
330
6A1
102
}
330
6A1
100
AcDbVisualStyle
  2
JitterOff
 70
    20
 71
     2
 72
     2
 73
     0
 90
        0
 40
-0.6
 41
-30.0
 62
     5
 63
     7
421
 16777215
 74
     1
 91
        4
 64
     7
 65
   257
 75
     1
175
     1
 42
1.0
 92
       10
 66
     7
 43
1.0
 76
     1
 77
     6
 78
     2
 67
     7
 79
     5
170
     0
171
     0
290
     0
174
     0
 93
        1
 44
0.0
173
     0
291
     1
 45
0.0
1001
ACAD
1000
AcDbSavedByObjectVersion
1070
     0
  0
VISUALSTYLE
  5
6AF
102
{ACAD_XDICTIONARY
360
765
102
}
102
{ACAD_REACTORS
330
6A1
102
}
330
6A1
100
AcDbVisualStyle
  2
Linepattern
 70
    14
 71
     2
 72
     2
 73
     0
 90
        0
 40
-0.6
 41
-30.0
 62
     5
 63
     7
421
 16777215
 74
     1
 91
        4
 64
     7
 65
   257
 75
     7
175
     7
 42
1.0
 92
        8
 66
     7
 43
1.0
 76
     1
 77
     6
 78
     2
 67
     7
 79
     5
170
     0
171
     0
290
     0
174
     0
 93
        1
 44
0.0
173
     0
291
     1
 45
0.0
1001
ACAD
1000
AcDbSavedByObjectVersion
1070
     0
  0
VISUALSTYLE
  5
6B8
102
{ACAD_XDICTIONARY
360
777
102
}
102
{ACAD_REACTORS
330
6A1
102
}
330
6A1
100
AcDbVisualStyle
  2
OverhangOff
 70
    21
 71
     2
 72
     2
 73
     0
 90
        0
 40
-0.6
 41
-30.0
 62
     5
 63
     7
421
 16777215
 74
     1
 91
        4
 64
     7
 65
   257
 75
     1
175
     1
 42
1.0
 92
        9
 66
     7
 43
1.0
 76
     1
 77
     6
 78
     2
 67
     7
 79
     5
170
     0
171
     0
290
     0
174
     0
 93
        1
 44
0.0
173
     0
291
     1
 45
0.0
1001
ACAD
1000
AcDbSavedByObjectVersion
1070
     0
  0
VISUALSTYLE
  5
6AB
102
{ACAD_XDICTIONARY
360
75D
102
}
102
{ACAD_REACTORS
330
6A1
102
}
330
6A1
100
AcDbVisualStyle
  2
Realistic
 70
     8
 71
     2
 72
     3
 73
     0
 90
        2
 40
-0.6
 41
30.0
 62
     5
 63
     7
421
 16777215
 74
     0
 91
        0
 64
     7
 65
   257
 75
     1
175
     1
 42
1.0
 92
        8
 66
   257
 43
1.0
 76
     1
 77
     6
 78
     2
 67
     7
 79
     3
170
     0
171
     0
290
     0
174
     0
 93
       13
 44
0.0
173
     0
291
     0
 45
0.0
1001
ACAD
1000
AcDbSavedByObjectVersion
1070
     0
  0
VISUALSTYLE
  5
6B6
102
{ACAD_XDICTIONARY
360
773
102
}
102
{ACAD_REACTORS
330
6A1
102
}
330
6A1
100
AcDbVisualStyle
  2
Shaded
 70
    27
 71
     2
 72
     2
 73
     1
 90
        2
 40
-0.6
 41
30.0
 62
     5
 63
     7
421
 16777215
 74
     0
 91
        4
 64
     7
 65
   257
 75
     1
175
     1
 42
1.0
 92
        8
 66
   257
 43
1.0
 76
     1
 77
     6
 78
     2
 67
     8
425
  7895160
 79
     3
170
     0
171
     0
290
     0
174
     0
 93
        5
 44
0.0
173
     0
291
     0
 45
0.0
1001
ACAD
1000
AcDbSavedByObjectVersion
1070
     0
  0
VISUALSTYLE
  5
6B5
102
{ACAD_XDICTIONARY
360
771
102
}
102
{ACAD_REACTORS
330
6A1
102
}
330
6A1
100
AcDbVisualStyle
  2
Shaded with edges
 70
    26
 71
     2
 72
     2
 73
     1
 90
        2
 40
-0.6
 41
30.0
 62
     5
 63
     7
421
 16777215
 74
     1
 91
       10
 64
     7
 65
   257
 75
     2
175
     1
 42
1.0
 92
        8
 66
   257
 43
1.0
 76
     1
 77
     6
 78
     2
 67
     7
 79
     3
170
     0
171
     0
290
     0
174
     0
 93
        5
 44
0.0
173
     0
291
     0
 45
0.0
1001
ACAD
1000
AcDbSavedByObjectVersion
1070
     0
  0
VISUALSTYLE
  5
6B2
102
{ACAD_XDICTIONARY
360
76B
102
}
102
{ACAD_REACTORS
330
6A1
102
}
330
6A1
100
AcDbVisualStyle
  2
Shades of Gray
 70
    23
 71
     2
 72
     2
 73
     3
 90
        0
 40
-0.6
 41
-30.0
 62
     5
 63
     7
421
 16777215
 74
     2
 91
        2
 64
     7
 65
     7
 75
     1
175
     1
 42
40.0
 92
        8
 66
     7
 43
1.0
 76
     1
 77
     6
 78
     2
 67
     7
 79
     3
170
     0
171
     0
290
     0
174
     0
 93
        1
 44
0.0
173
     0
291
     0
 45
0.0
1001
ACAD
1000
AcDbSavedByObjectVersion
1070
     0
  0
VISUALSTYLE
  5
6B3
102
{ACAD_XDICTIONARY
360
76D
102
}
102
{ACAD_REACTORS
330
6A1
102
}
330
6A1
100
AcDbVisualStyle
  2
Sketchy
 70
    24
 71
     1
 72
     2
 73
     2
 90
        0
 40
-0.6
 41
-30.0
 62
     5
 63
     7
421
 16777215
 74
     2
 91
        2
 64
     7
 65
     7
 75
     1
175
     1
 42
40.0
 92
       11
 66
     7
 43
1.0
 76
     1
 77
     6
 78
     2
 67
     7
 79
     6
170
     0
171
     0
290
     0
174
     0
 93
        1
 44
0.0
173
     0
291
     0
 45
0.0
1001
ACAD
1000
AcDbSavedByObjectVersion
1070
     0
  0
VISUALSTYLE
  5
6AE
102
{ACAD_XDICTIONARY
360
763
102
}
102
{ACAD_REACTORS
330
6A1
102
}
330
6A1
100
AcDbVisualStyle
  2
Thicken
 70
    13
 71
     2
 72
     2
 73
     0
 90
        0
 40
-0.6
 41
-30.0
 62
     5
 63
     7
421
 16777215
 74
     1
 91
        4
 64
     7
 65
   257
 75
     1
175
     1
 42
1.0
 92
       12
 66
     7
 43
1.0
 76
     1
 77
     6
 78
     2
 67
     7
 79
     5
170
     0
171
     0
290
     0
174
     0
 93
        1
 44
0.0
173
     0
291
     1
 45
0.0
1001
ACAD
1000
AcDbSavedByObjectVersion
1070
     0
  0
VISUALSTYLE
  5
6A8
102
{ACAD_XDICTIONARY
360
757
102
}
102
{ACAD_REACTORS
330
6A1
102
}
330
6A1
100
AcDbVisualStyle
  2
Wireframe
 70
     5
 71
     0
 72
     2
 73
     0
 90
        0
 40
-0.6
 41
-30.0
 62
     5
 63
     7
421
 16777215
 74
     1
 91
        4
 64
     7
 65
   257
 75
     1
175
     1
 42
1.0
 92
        0
 66
   257
 43
1.0
 76
     1
 77
     6
 78
     2
 67
     7
 79
     3
170
     0
171
     0
290
     0
174
     0
 93
        1
 44
0.0
173
     0
291
     0
 45
0.0
1001
ACAD
1000
AcDbSavedByObjectVersion
1070
     0
  0
VISUALSTYLE
  5
6B4
102
{ACAD_XDICTIONARY
360
76F
102
}
102
{ACAD_REACTORS
330
6A1
102
}
330
6A1
100
AcDbVisualStyle
  2
X-Ray
 70
    25
 71
     2
 72
     2
 73
     1
 90
        1
 40
0.5
 41
-30.0
 62
     5
 63
     7
421
 16777215
 74
     1
 91
        0
 64
     7
 65
   257
 75
     1
175
     1
 42
1.0
 92
        8
 66
     7
 43
1.0
 76
     1
 77
     6
 78
     2
 67
     7
 79
     3
170
     0
171
     0
290
     0
174
     0
 93
       13
 44
0.0
173
     0
291
     0
 45
0.0
1001
ACAD
1000
AcDbSavedByObjectVersion
1070
     0
  0
DICTIONARYVAR
  5
743
102
{ACAD_REACTORS
330
35
102
}
330
35
100
DictionaryVariables
280
     0
  1
1:1
  0
DICTIONARYVAR
  5
741
102
{ACAD_REACTORS
330
35
102
}
330
35
100
DictionaryVariables
280
     0
  1
STANDARD
  0
DICTIONARYVAR
  5
740
102
{ACAD_REACTORS
330
35
102
}
330
35
100
DictionaryVariables
280
     0
  1
STANDARD
  0
DICTIONARYVAR
  5
36
102
{ACAD_REACTORS
330
35
102
}
330
35
100
DictionaryVariables
280
     0
  1
0
  0
DICTIONARYVAR
  5
745
102
{ACAD_REACTORS
330
35
102
}
330
35
100
DictionaryVariables
280
     0
  1
1
  0
DICTIONARYVAR
  5
746
102
{ACAD_REACTORS
330
35
102
}
330
35
100
DictionaryVariables
280
     0
  1
15
  0
DICTIONARYVAR
  5
744
102
{ACAD_REACTORS
330
35
102
}
330
35
100
DictionaryVariables
280
     0
  1
0
  0
DICTIONARYVAR
  5
742
102
{ACAD_REACTORS
330
35
102
}
330
35
100
DictionaryVariables
280
     0
  1
0
  0
DICTIONARYVAR
  5
747
102
{ACAD_REACTORS
330
35
102
}
330
35
100
DictionaryVariables
280
     0
  1
2
  0
DICTIONARY
  5
702
330
5DB
100
AcDbDictionary
280
     1
281
     1
  3
ADSK_XREC_LAYOUTTHUMBNAIL
360
703
  0
DICTIONARY
  5
692
330
691
100
AcDbDictionary
280
     1
281
     1
  3
BUMPTILE
360
694
  3
DIFFUSETILE
360
693
  3
OPACITYTILE
360
697
  3
REFLECTIONTILE
360
696
  3
REFRACTIONTILE
360
698
  3
SPECULARTILE
360
695
  0
DICTIONARY
  5
68A
330
689
100
AcDbDictionary
280
     1
281
     1
  3
BUMPTILE
360
68C
  3
DIFFUSETILE
360
68B
  3
OPACITYTILE
360
68F
  3
REFLECTIONTILE
360
68E
  3
REFRACTIONTILE
360
690
  3
SPECULARTILE
360
68D
  0
DICTIONARY
  5
69A
330
699
100
AcDbDictionary
280
     1
281
     1
  3
BUMPTILE
360
69C
  3
DIFFUSETILE
360
69B
  3
OPACITYTILE
360
69F
  3
REFLECTIONTILE
360
69E
  3
REFRACTIONTILE
360
6A0
  3
SPECULARTILE
360
69D
  0
DICTIONARY
  5
748
330
6BC
100
AcDbDictionary
280
     1
281
     1
  3
ACAD_ROUNDTRIP_2008_TABLESTYLE_CELLSTYLEMAP
360
749
  0
DICTIONARY
  5
755
330
6A7
100
AcDbDictionary
280
     1
281
     1
  3
ACAD_XREC_ROUNDTRIP
360
756
  0
DICTIONARY
  5
753
330
6A6
100
AcDbDictionary
280
     1
281
     1
  3
ACAD_XREC_ROUNDTRIP
360
754
  0
DICTIONARY
  5
761
330
6AD
100
AcDbDictionary
280
     1
281
     1
  3
ACAD_XREC_ROUNDTRIP
360
762
  0
DICTIONARY
  5
769
330
6B1
100
AcDbDictionary
280
     1
281
     1
  3
ACAD_XREC_ROUNDTRIP
360
76A
  0
DICTIONARY
  5
75B
330
6AA
100
AcDbDictionary
280
     1
281
     1
  3
ACAD_XREC_ROUNDTRIP
360
75C
  0
DICTIONARY
  5
75F
330
6AC
100
AcDbDictionary
280
     1
281
     1
  3
ACAD_XREC_ROUNDTRIP
360
760
  0
DICTIONARY
  5
779
330
6B9
100
AcDbDictionary
280
     1
281
     1
  3
ACAD_XREC_ROUNDTRIP
360
77A
  0
DICTIONARY
  5
767
330
6B0
100
AcDbDictionary
280
     1
281
     1
  3
ACAD_XREC_ROUNDTRIP
360
768
  0
DICTIONARY
  5
74B
330
6A2
100
AcDbDictionary
280
     1
281
     1
  3
ACAD_XREC_ROUNDTRIP
360
74C
  0
DICTIONARY
  5
74D
330
6A3
100
AcDbDictionary
280
     1
281
     1
  3
ACAD_XREC_ROUNDTRIP
360
74E
  0
DICTIONARY
  5
74F
330
6A4
100
AcDbDictionary
280
     1
281
     1
  3
ACAD_XREC_ROUNDTRIP
360
750
  0
DICTIONARY
  5
751
330
6A5
100
AcDbDictionary
280
     1
281
     1
  3
ACAD_XREC_ROUNDTRIP
360
752
  0
DICTIONARY
  5
759
330
6A9
100
AcDbDictionary
280
     1
281
     1
  3
ACAD_XREC_ROUNDTRIP
360
75A
  0
DICTIONARY
  5
775
330
6B7
100
AcDbDictionary
280
     1
281
     1
  3
ACAD_XREC_ROUNDTRIP
360
776
  0
DICTIONARY
  5
765
330
6AF
100
AcDbDictionary
280
     1
281
     1
  3
ACAD_XREC_ROUNDTRIP
360
766
  0
DICTIONARY
  5
777
330
6B8
100
AcDbDictionary
280
     1
281
     1
  3
ACAD_XREC_ROUNDTRIP
360
778
  0
DICTIONARY
  5
75D
330
6AB
100
AcDbDictionary
280
     1
281
     1
  3
ACAD_XREC_ROUNDTRIP
360
75E
  0
DICTIONARY
  5
773
330
6B6
100
AcDbDictionary
280
     1
281
     1
  3
ACAD_XREC_ROUNDTRIP
360
774
  0
DICTIONARY
  5
771
330
6B5
100
AcDbDictionary
280
     1
281
     1
  3
ACAD_XREC_ROUNDTRIP
360
772
  0
DICTIONARY
  5
76B
330
6B2
100
AcDbDictionary
280
     1
281
     1
  3
ACAD_XREC_ROUNDTRIP
360
76C
  0
DICTIONARY
  5
76D
330
6B3
100
AcDbDictionary
280
     1
281
     1
  3
ACAD_XREC_ROUNDTRIP
360
76E
  0
DICTIONARY
  5
763
330
6AE
100
AcDbDictionary
280
     1
281
     1
  3
ACAD_XREC_ROUNDTRIP
360
764
  0
DICTIONARY
  5
757
330
6A8
100
AcDbDictionary
280
     1
281
     1
  3
ACAD_XREC_ROUNDTRIP
360
758
  0
DICTIONARY
  5
76F
330
6B4
100
AcDbDictionary
280
     1
281
     1
  3
ACAD_XREC_ROUNDTRIP
360
770
  0
XRECORD
  5
703
102
{ACAD_REACTORS
330
702
102
}
330
702
100
AcDbXrecord
280
     1
310
2800000000010000B0000000010008000000000000B00000000000000000000000010000000000000000000000000000FFFFFF000000000000000000000000000000000000000000000000000000000000000000330000006600000099000000CC000000FF00000000330000333300006633000099330000CC330000FF3300
310
0000660000336600006666000099660000CC660000FF66000000990000339900006699000099990000CC990000FF99000000CC000033CC000066CC000099CC0000CCCC0000FFCC000000FF000033FF000066FF000099FF0000CCFF0000FFFF000000003300330033006600330099003300CC003300FF003300003333003333
310
33006633330099333300CC333300FF33330000663300336633006666330099663300CC663300FF66330000993300339933006699330099993300CC993300FF99330000CC330033CC330066CC330099CC3300CCCC3300FFCC330000FF330033FF330066FF330099FF3300CCFF3300FFFF330000006600330066006600660099
310
006600CC006600FF00660000336600333366006633660099336600CC336600FF33660000666600336666006666660099666600CC666600FF66660000996600339966006699660099996600CC996600FF99660000CC660033CC660066CC660099CC6600CCCC6600FFCC660000FF660033FF660066FF660099FF6600CCFF6600
310
FFFF660000009900330099006600990099009900CC009900FF00990000339900333399006633990099339900CC339900FF33990000669900336699006666990099669900CC669900FF66990000999900339999006699990099999900CC999900FF99990000CC990033CC990066CC990099CC9900CCCC9900FFCC990000FF99
310
0033FF990066FF990099FF9900CCFF9900FFFF99000000CC003300CC006600CC009900CC00CC00CC00FF00CC000033CC003333CC006633CC009933CC00CC33CC00FF33CC000066CC003366CC006666CC009966CC00CC66CC00FF66CC000099CC003399CC006699CC009999CC00CC99CC00FF99CC0000CCCC0033CCCC0066CC
310
CC0099CCCC00CCCCCC00FFCCCC0000FFCC0033FFCC0066FFCC0099FFCC00CCFFCC00FFFFCC000000FF003300FF006600FF009900FF00CC00FF00FF00FF000033FF003333FF006633FF009933FF00CC33FF00FF33FF000066FF003366FF006666FF009966FF00CC66FF00FF66FF000099FF003399FF006699FF009999FF00CC
310
99FF00FF99FF0000CCFF0033CCFF0066CCFF0099CCFF00CCCCFF00FFCCFF0000FFFF0033FFFF0066FFFF0099FFFF00CCFFFF00FFFFFF00000000000D0D0D001A1A1A00282828003535350043434300505050005D5D5D006B6B6B00787878008686860093939300A1A1A100AEAEAE00BBBBBB00C9C9C900D6D6D600E4E4E400
310
F1F1F100FFFFFF000000000000000000000000000000000000000000000000000000000000000000000000000000000000000000000000000000000000000000000000000000000000000000000000000000000000000000000000000000000000000000000000000000000000000000000000000000000000000000000000
310
00000000000000000000000000000000000000000000000000000000000000000000000000000000000000000000000000000000000000000000000000000000000000000000000000000000000000000000000000000000000000000000000000000000000000000000000000000000000000000000000000000000000000
310
00000000000000000000000000000000000000000000000000000000000000000000000000000000000000000000000000000000000000000000000000000000000000000000000000000000F50000000000000000000000000000000000000000000000000000000000000000000000000000000000000000000000000000
310
00000000000000000000000000000000000000000000000000000000000000000000000000000000000000000000000000000000000000000000000000000000000000000000000000000000000000000000000000000000000000000000000000000000000000000000000000000000000000000000000000000000000000
310
00000000000000000000000000000000000000000000000000F500000000000000000000000000000000000000000000000000000000000000000000000000000000000000000000000000000000F5000000000000000000000000000000000000000000000000000000000000000000000000000000000000000000000000
310
00000000000000000000000000000000000000000000000000000000000000000000000000000000000000000000000000000000000000000000000000000000000000000000000000000000000000000000000000000000000000000000000000000000000000000000000000000000000000000000000000000000000000
310
000000000000000000000000000000000000000000000000000000F500000000000000000000000000000000000000000000000000000000000000000000000000000000000000000000000000000000F500000000000000000000000000000000000000000000000000000000000000000000000000000000000000000000
310
00000000000000000000000000000000000000000000000000000000000000000000000000000000000000000000000000000000000000000000000000000000000000000000000000000000000000000000000000000000000000000000000000000000000000000000000000000000000000000000000000000000000000
310
0000000000000000000000000000000000000000000000000000000000F500000000000000000000000000000000000000000000000000000000000000000000000000000000000000000000000000000000000000000000000000000000000000000000000000000000000000000000000000000000000000000000000000
310
00000000000000000000000000000000000000000000000000000000000000000000000000000000000000000000000000000000000000000000000000000000000000000000000000000000000000000000000000000000000000000000000000000000000000000000000000000000000000000000000000000000000000
310
000000000000000000000000000000000000000000000000000000000000000000000000000000000000000000000000000000000000000000000000000000000000000000000000000000000000000000000000F5000000000000000000000000000000000000000000000000000000000000000000000000000000000000
310
00000000000000000000000000000000000000000000000000000000000000000000000000000000000000000000000000000000000000000000000000000000000000000000000000000000000000000000000000000000000000000000000000000000000000000000000000000000000000000000000000000000000000
310
000000000000000000000000000000000000000000000000000000000000000000F500000000000000000000000000000000000000000000000000000000000000000000000000000000000000000000000000000000F500000000000000000000000000000000000000000000000000000000000000000000000000000000
310
00000000000000000000000000000000000000000000000000000000000000000000000000000000000000000000000000000000000000000000000000000000000000000000000000000000000000000000000000000000000000000000000000000000000000000000000000000000000000000000000000000000000000
310
0000000000000000000000000000000000000000000000000000000000000000000000F500000000000000000000000000000000000000000000000000000000000000000000000000000000000000000000000000000000F50000000000000000000000000000000000000000000000000000000000000000000000000000
310
00000000000000000000000000000000000000000000000000000000000000000000000000000000000000000000000000000000000000000000000000000000000000000000000000000000000000000000000000000000000000000000000000000000000000000000000000000000000000000000000000000000000000
310
00000000000000000000000000000000000000000000000000000000000000000000000000F500000000000000000000000000000000000000000000000000000000000000000000000000000000000000000000000000000000F5000000000000000000000000000000000000000000000000000000000000000000000000
310
00000000000000000000000000000000000000000000000000000000000000000000000000000000000000000000000000000000000000000000000000000000000000000000000000000000000000000000000000000000000000000000000000000000000000000000000000000000000000000000000000000000000000
310
000000000000000000000000000000000000000000000000000000000000000000000000000000F500000000000000000000000000000000000000000000000000000000000000000000000000000000000000000000000000000000F500000000000000000000000000000000000000000000000000000000000000000000
310
00000000000000000000000000000000000000000000000000000000000000000000000000000000000000000000000000000000000000000000000000000000000000000000000000000000000000000000000000000000000000000000000000000000000000000000000000000000000000000000000000000000000000
310
0000000000000000000000000000000000000000000000000000000000000000000000000000000000F500000000000000000000000000000000000000000000000000000000000000000000000000000000000000F5F5F5F5F5F5F5F5F5F5F5F5F5F5F500F5F5F5F500000000000000000000000000000000000000000000
310
00000000000000000000000000000000000000000000000000000000000000000000000000000000000000000000000000000000000000000000000000000000000000000000000000000000000000000000000000000000000000000000000000000000000000000000000000000000000000000000000000000000000000
310
000000000000000000000000000000000000000000000000000000000000000000F5F5F5F500F5F5F5F5F5F5F5F5F5F5F5F5F5F5F500000000000000000000000000000000000000000000000000000000000000000000000000000000000000F5000000000000000000000000000000000000000000000000000000000000
310
00000000000000000000000000000000000000000000000000000000000000000000000000000000000000000000000000000000000000000000000000000000000000000000000000000000000000000000000000000000000000000000000000000000000000000000000000000000000000000000000000000000000000
310
000000000000000000000000000000000000000000000000000000000000000000000000000000000000000000F500000000000000000000000000000000000000000000000000000000000000000000000000000000000000000000000000000000F500000000000000000000000000000000000000000000000000000000
310
00000000000000000000000000000000000000000000000000000000000000000000000000000000000000000000000000000000000000000000000000000000000000000000000000000000000000000000000000000000000000000000000000000000000000000000000000000000000000000000000000000000000000
310
0000000000000000000000000000000000000000000000000000000000000000000000000000000000000000000000F500000000000000000000000000000000000000000000000000000000000000000000000000000000000000000000000000000000F50000000000000000000000000000000000000000000000000000
310
00000000000000000000000000000000000000000000000000000000000000000000000000000000000000000000000000000000000000000000000000000000000000000000000000000000000000000000000000000000000000000000000000000000000000000000000000000000000000000000000000000000000000
310
00000000000000000000000000000000000000000000000000000000000000000000000000000000000000000000000000F500000000000000000000000000000000000000000000000000000000000000000000000000000000000000000000000000000000F5000000000000000000000000000000000000000000000000
310
00000000000000000000000000000000000000000000000000000000000000000000000000000000000000000000000000000000000000000000000000000000000000000000000000000000000000000000000000000000000000000000000000000000000000000000000000000000000000000000000000000000000000
310
000000000000000000000000000000000000000000000000000000000000000000000000000000000000000000000000000000F500000000000000000000000000000000000000000000000000000000000000000000000000000000000000000000000000000000F500000000000000000000000000000000000000000000
310
00000000000000000000000000000000000000000000000000000000000000000000000000000000000000000000000000000000000000000000000000000000000000000000000000000000000000000000000000000000000000000000000000000000000000000000000000000000000000000000000000000000000000
310
0000000000000000000000000000000000000000000000000000000000000000000000000000000000000000000000000000000000F500000000000000000000000000000000000000000000000000000000000000000000000000000000000000000000000000000000F50000000000000000000000000000000000000000
310
00000000000000000000000000000000000000000000000000000000000000000000000000000000000000000000000000000000000000000000000000000000000000000000000000000000000000000000000000000000000000000000000000000000000000000000000000000000000000000000000000000000000000
310
00000000000000000000000000000000000000000000000000000000000000000000000000000000000000000000000000000000000000F500000000000000000000000000000000000000000000000000000000000000000000000000000000000000000000000000000000F5000000000000000000000000000000000000
310
00000000000000000000000000000000000000000000000000000000000000000000000000000000000000000000000000000000000000000000000000000000000000000000000000000000000000000000000000000000000000000000000000000000000000000000000000000000000000000000000000000000000000
310
000000000000000000000000000000000000000000000000000000000000000000000000000000000000000000000000000000000000000000F500000000000000000000000000000000000000000000000000000000000000000000000000000000000000000000000000000000F500000000000000000000000000000000
310
00000000000000000000000000000000000000000000000000000000000000000000000000000000000000000000000000000000000000000000000000000000000000000000000000000000000000000000000000000000000000000000000000000000000000000000000000000000000000000000000000000000000000
310
0000000000000000000000000000000000000000000000000000000000000000000000000000000000000000000000000000000000000000000000F500000000000000000000000000000000000000000000000000000000000000000000000000000000000000000000000000000000F50000000000000000000000000000
310
00000000000000000000000000000000000000000000000000000000000000000000000000000000000000000000000000000000000000000000000000000000000000000000000000000000000000000000000000000000000000000000000000000000000000000000000000000000000000000000000000000000000000
310
00000000000000000000000000000000000000000000000000000000000000000000000000000000000000000000000000000000000000000000000000F50000000000000000000000000000000000000000000000000000000000000000000000000000000000000000000000000000000000000000000000000000000000
310
00000000000000000000000000000000000000000000000000000000000000000000000000000000000000000000000000000000000000000000000000000000000000000000000000000000000000000000000000000000000000000000000000000000000000000000000000000000000000000000000000000000000000
310
000000000000000000000000000000000000000000000000000000000000000000000000000000000000000000000000DCDCDCDCDCDCDCDCDCDCDC0000000000000000000000000000000000000000000000000000000000000000000000000000000000000000000000000000000000000000000000000000000000000000
310
00000000000000000000000000000000000000000000000000000000000000000000000000000000000000000000000000000000000000000000000000000000000000000000000000000000000000000000000000000000000000000000000000000000000000000000000000000000000000000000000000000000000000
310
00000000000000000000000000000000000000000000000000000000000000000000000000000000000000000000000000000000000000000000000000000000000000000000000000000000000000000000000000000000000000000000000000000000000000000000000000000000000000000000000000DCDCDCDCDCDC
310
DCDCDCDCDCDCDCDCDCDCDCDCDCDCDCDCDCDCDCDCDCDCDCDCDCDCDCDCDCDCDCDCDCDCDCDCDCDCDCDCDCDCDCDCDCDCDCDCDCDCDCDCDCDCDCDCDCDCDCDCDCDCDCDCDCDCDCDCDCDCDCDCDCDCDCDCDCDCDCDCDCDCDCDCDCDCDCDCDCDCDCDCDCDCDCDCDCDCDCDCDCDCDCDCDCDCDCDCDCDCDCDCDCDCDCDCDCDCDCDCDCDCDCDCDCDCDC
310
DCDCDCDCDCDCDCDCDCDCDCDCDCDCDCDCDCDCDCDCDCDCDCDCDCDCDCDCDCDCDCDCDCDCDCDCDCDCDCDCDCDCDCDCDCDCDCDCDCDCDCDCDCDCDCDCDCDCDCDCDCDCDCDCDC00000000000000000000000000000000000000000000000000000000000000000000000000000000000000000000000000000000000000000000DCDCDCDC
310
DCDCDCDCDCDCDCDCDCDCDCDCDCDCDCDCDCDCDCDCDCDCDCDCDCDCDCDCDCDCDCDCDCDCDCDCDCDCDCDCDCDCDCDCDCDCDCDCDCDCDCDCDCDCDCDCDCDCDCDCDCDCDCDCDCDCDCDCDCDCDCDCDCDCDCDCDCDCDCDCDCDCDCDCDCDCDCDCDCDCDCDCDCDCDCDCDCDCDCDCDCDCDCDCDCDCDCDCDCDCDCDCDCDCDCDCDCDCDCDCDCDCDCDCDCDCDC
310
DCDCDCDCDCDCDCDCDCDCDCDCDCDCDCDCDCDCDCDCDCDCDCDCDCDCDCDCDCDCDCDCDCDCDCDCDCDCDCDCDCDCDCDCDCDCDCDCDCDCDCDCDCDCDCDCDCDCDCDCDCDCDCDCDCDCDC00000000000000000000000000000000000000000000000000000000000000000000000000000000000000000000000000000000000000000000DCDC
310
0000DCDCDCDCDCDCDCDCDCDC0000000000000000000000000000000000DCDCDCDCDCDC0000000000000000000000000000000000000000000000000000000000000000000000000000DCDCDCDCDCDCDCDCDCDCDCDCDCDCDCDCDCDCDCDCDCDCDCDCDCDCDCDCDCDCDCDCDCDCDCDCDC0000000000DC0000000000000000000000
310
000000000000000000000000000000000000DC00000000000000000000000000000000000000000000000000000000DCDCDCDCDCDCDCDCDCDCDCDC0000000000000000DCDC00000000000000000000000000000000000000000000000000000000000000000000000000000000000000000000000000000000000000000000
310
DCDC0000DCDCDCDCDCDCDCDCDCDCDC00000000000000000000000000000000DCDCDCDCDCDCDCDCDCDCDCDCDCDCDCDCDCDCDCDCDCDCDCDCDCDCDCDCDCDCDCDCDCDCDCDCDCDCDCDCDCDCDCDCDC0000000000000000000000000000000000000000000000000000000000000000000000000000000000DCDCDCDCDCDCDCDCDCDC
310
00DCDCDCDCDCDCDCDCDCDCDCDCDCDCDCDCDCDCDCDCDCDCDCDCDCDCDCDCDCDCDCDCDCDCDCDCDCDCDCDCDC00DCDCDCDCDCDCDC00000000000000000000000000000000000000DCDC0000000000000000000000000000000000000000000000000000000000000000000000000000000000000000000000000000000000000000
310
0000DCDC0000DCDCDCDCDCDCDCDCDCDC00DC00DCDCDCDCDCDCDCDCDCDC00000000DCDCDCDCDCDC0000000000000000000000000000000000000000000000000000000000000000000000000000DC0000000000000000000000000000000000000000000000000000000000000000000000000000000000DCDCDCDCDCDCDCDC
310
DCDC0000000000000000000000000000000000000000DCDCDCDCDCDCDCDCDCDCDCDCDCDCDCDCDCDCDCDCDCDC00000000000000DC00000000000000000000000000000000000000DCDC000000000000000000000000000000000000000000000000000000000000000000000000000000000000000000000000000000000000
310
00000000DCDC0000DCDCDCDC00DCDCDCDCDC00DCDCDCDCDCDCDCDCDCDCDCDC00000000DCDCDCDCDCDC0000000000000000000000000000000000000000000000000000000000000000000000000000DCDCDCDCDCDCDCDCDCDCDCDCDCDCDCDCDCDCDCDCDCDCDCDCDCDCDCDCDCDCDCDCDCDCDCDCDCDCDCDCDCDCDC0000000000
310
000000000000000000000000000000000000000000000000DC00000000000000000000000000000000000000000000000000000000DCDCDCDCDC00DCDCDCDCDCDCDCDCDCDCDCDCDCDCDCDC00000000000000000000000000000000000000000000000000000000000000000000000000000000000000000000000000000000
310
000000000000DCDC0000000000000000000000000000000000DCDC00000000000000000000DC00000000000000000000000000000000000000000000000000000000000000000000000000000000000000DCDCDCDCDCDCDCDCDCDCDCDCDCDCDCDCDCDCDCDCDCDCDCDCDCDCDCDCDCDCDCDCDCDCDCDCDCDCDCDCDC00DC000000
310
0000000000000000000000000000000000000000000000000000DC00000000000000000000000000000000000000000000000000000000DCDCDCDCDC000000000000000000000000000000DCDC0000000000000000000000000000000000000000000000000000000000000000000000000000000000000000000000000000
310
0000000000000000DCDC00DCDCDCDCDCDCDC00DCDCDCDCDCDCDCDCDCDCDCDCDCDCDCDCDC000000DCDCDCDCDCDCDCDCDCDCDCDCDCDCDCDCDCDCDCDCDCDCDCDCDCDCDCDCDCDCDCDCDCDCDCDCDCDCDCDCDCDCDCDCDCDCDCDCDCDCDCDCDCDCDCDCDCDCDCDCDCDCDCDCDCDCDCDCDCDCDCDCDCDCDCDCDCDCDCDCDCDCDCDCDC00DCDC
310
DCDCDCDCDCDCDCDCDCDCDCDCDCDCDCDCDC00DCDCDCDCDCDCDCDCDCDCDCDCDCDCDCDCDCDCDCDCDCDCDCDCDCDCDCDCDCDCDCDCDCDCDCDCDCDCDCDC00000000000000000000000000000000000000DCDC000000000000000000000000000000000000000000000000000000000000000000000000000000000000000000000000
310
00000000000000000000DCDC00DCDCDCDCDCDCDC00DCDCDCDCDCDCDCDCDCDCDCDCDCDCDCDCDC000000DCDCDCDC00000000000000000000000000000000000000000000000000000000000000000000000000000000DC0000000000000000000000000000000000000000000000000000000000000000000000000000000000
310
DCDCDCDCDCDCDCDCDCDCDCDCDCDCDCDCDCDCDC0000000000000000000000DCDCDCDCDCDCDCDCDCDCDCDCDCDCDCDCDCDCDC00000000000000000000DCDCDCDCDC00DCDCDCDCDCDCDCDCDCDCDCDCDCDCDCDC00000000000000000000000000000000000000000000000000000000000000000000000000000000000000000000
310
000000000000000000000000DCDC00DCDCDCDCDCDCDC00DCDCDCDCDCDCDCDCDCDCDCDCDCDCDCDCDCDC0000DCDCDCDC00000000000000000000000000000000000000000000000000000000000000000000000000000000DC000000000000000000000000000000000000000000000000000000000000000000000000000000
310
0000DC0000000000000000000000000000000000000000000000000000000000DC00000000000000000000000000000000000000000000000000000000DCDCDCDCDC000000000000000000000000000000DCDC0000000000000000000000000000000000000000000000000000000000000000000000000000000000000000
310
0000000000000000000000000000DCDC00DCDCDCDCDCDC0000DCDCDCDCDCDCDCDCDCDCDCDCDCDCDCDCDCDC0000DC00000000000000000000000000000000000000000000000000000000000000000000000000000000000000DCDCDCDCDCDCDCDCDCDCDCDCDCDCDCDCDCDCDCDCDCDCDCDCDCDCDCDCDCDCDCDCDCDCDCDCDCDC
310
DCDCDCDCDC0000000000000000000000000000000000000000000000000000000000DC00000000000000000000000000000000000000000000000000000000DC00000000000000000000000000000000000000DCDC000000000000000000000000000000000000000000000000000000000000000000000000000000000000
310
00000000000000000000000000000000DCDC00DCDCDCDCDCDCDC00DCDCDCDCDCDCDCDCDCDCDCDCDCDCDCDCDCDC0000DCDCDCDCDCDCDCDCDCDCDCDCDCDCDCDCDCDCDCDCDCDCDCDCDCDCDCDCDCDCDCDCDCDCDCDCDCDCDCDCDCDCDCDCDC000000000000DCDCDCDCDCDCDC00000000000000000000DCDCDCDCDCDCDCDCDCDC0000
310
000000000000DCDCDCDCDCDCDCDCDCDCDCDCDCDCDCDCDC00DCDCDCDCDCDCDCDCDCDCDCDCDCDCDCDCDCDCDCDCDCDCDCDCDCDCDCDCDCDCDC0000DCDCDCDCDCDCDCDCDCDCDCDCDCDCDCDCDCDCDC000000DC000000DC00DCDC00000000000000000000000000000000000000000000000000000000000000000000000000000000
310
000000000000000000000000000000000000DCDC00DCDCDCDCDCDCDC00DCDCDCDCDC000000000000000000000000000000DCDCDCDCDC000000000000000000000000000000000000000000000000000000000000000000000000000000DC000000000000DCDCDCDCDCDCDC00000000000000000000DCDCDCDCDCDCDCDCDCDC
310
0000000000000000DCDCDCDCDCDCDCDCDCDCDCDCDCDCDCDCDC00000000000000000000000000DCDCDCDCDCDCDCDCDCDCDCDCDCDCDCDCDCDCDC00000000000000000000DCDCDCDCDCDCDCDCDCDCDC000000DCDCDCDCDCDCDCDC0000000000000000000000000000000000000000000000000000000000000000000000000000
310
0000000000000000000000000000000000000000DCDC00DCDCDCDCDCDCDC000000000000000000000000000000000000000000DC00000000000000000000000000000000000000000000000000000000000000000000000000000000000000DC0000000000000000000000000000000000000000000000DC00000000000000
310
00000000000000000000DC0000000000000000000000000000000000000000000000000000000000DC00000000000000000000000000000000000000000000000000000000DCDCDCDCDCDCDCDCDCDCDC0000DCDCDC0000DCDCDCDC000000000000000000000000000000000000000000000000000000000000000000000000
310
00000000000000000000000000000000000000000000DCDCDCDCDCDCDCDCDCDCDCDCDCDCDCDCDCDCDCDCDCDCDCDCDCDCDCDCDCDCDCDCDCDCDCDCDCDCDCDCDCDCDCDCDCDCDCDCDCDCDCDCDCDCDCDCDCDCDCDCDCDCDCDCDCDCDCDCDCDCDCDCDCDCDCDCDCDCDCDCDCDCDCDCDCDCDCDCDCDCDCDCDCDCDCDCDCDCDCDCDCDCDCDCDC
310
DCDCDCDCDCDCDCDCDCDCDCDCDCDCDCDCDCDCDCDCDCDCDCDCDCDCDCDCDCDCDCDCDCDCDCDCDCDCDCDCDCDCDCDCDCDCDCDCDCDCDCDCDCDCDCDCDCDCDCDCDCDCDCDCDCDCDCDCDCDCDCDCDCDCDCDCDCDCDCDCDCDCDCDCDCDCDCDCDCDCDCDCDC00000000000000000000000000000000000000000000000000000000000000000000
310
000000000000000000000000000000000000000000000000DCDC0000000000000000000000000000000000000000000000000000000000000000000000000000000000000000000000000000000000000000000000000000000000000000000000000000000000000000000000000000000000000000000000000000000000
310
000000000000000000000000000000000000000000000000000000000000000000000000000000000000000000000000000000000000000000000000000000000000000000000000000000000000000000000000000000000000000000DCDC0000000000000000000000000000000000000000000000000000000000000000
310
0000000000000000000000000000000000000000000000000000DCDC000000000000000000000000000000000000000000000000000000000000000000000000000000000000000000000000000000000000000000000000000000000000000000000000000000000000000000000000000000000000000000000000000000
310
0000000000000000000000000000000000000000000000000000000000000000000000000000000000000000000000000000000000000000000000000000000000000000000000000000000000000000000000000000000000000000000000DCDC000000000000000000000000000000000000000000000000000000000000
310
00000000000000000000000000000000000000000000000000000000DCDC0000000000000000000000DCDCDCDCDCDCDCDCDCDCDCDCDCDCDCDCDCDCDCDCDCDCDCDCDCDC000000000000000000000000000000000000000000000000000000000000000000000000000000000000000000000000000000000000000000000000
310
00000000000000000000000000000000000000000000000000000000000000000000000000000000000000000000000000000000000000000000000000000000000000000000000000000000000000000000000000000000000000000000000000DCDC00000000000000000000000000000000000000000000000000000000
310
000000000000000000000000000000000000000000000000000000000000DCDC0000000000000000000000DCDCDCDCDCDCDCDCDCDCDCDCDCDCDCDCDCDCDCDCDCDCDCDCDCDC00000000000000000000000000000000000000000000000000000000000000000000000000000000000000000000000000000000000000000000
310
000000000000000000000000000000000000000000000000000000000000000000000000000000000000000000000000000000000000000000000000000000000000000000000000000000000000000000000000000000000000000000000000000000DCDC0000000000000000000000000000000000000000000000000000
310
0000000000000000000000000000000000000000000000000000000000000000DCDC0000000000000000000000DCDCDCDCDCDCDCDCDCDCDCDCDCDCDCDCDCDCDCDCDCDCDCDCDC000000000000000000000000000000000000000000000000000000000000000000000000000000000000000000000000000000000000000000
310
0000000000000000000000000000000000000000000000000000000000000000000000000000000000000000000000000000000000000000000000000000000000000000000000000000000000000000000000000000000000000000000000000000000000DCDC000000000000000000000000000000000000000000000000
310
00000000000000000000000000000000000000000000000000000000000000000000DCDC0000000000000000DCDCDCDCDCDCDCDCDCDCDCDCDCDCDCDCDCDCDCDCDCDCDCDCDCDCDCDC00000000000000000000000000000000000000000000000000000000000000000000000000000000000000000000000000000000000000
310
0000000000000000000000000000000000000000000000000000000000000000000000000000000000000000000000000000000000000000000000000000000000000000000000000000000000000000DCDCDCDCDCDCF5DCDCDCDCDC0000000000000000000000DCDC00000000000000000000000000000000000000000000
310
000000000000000000000000000000000000000000000000000000000000000000000000DCDC0000000000000000DCDCDC000000000000000000000000000000000000000000000000000000000000000000000000000000000000000000000000000000000000000000000000000000000000000000000000000000000000
310
0000000000000000000000000000000000000000000000000000000000000000000000000000000000000000000000000000000000000000000000000000000000000000000000000000000000000000DCDCDCDC0000000000DC0000DCDC0000000000000000000000DCDC0000000000000000000000000000000000000000
310
0000000000000000000000000000000000000000000000000000000000000000000000000000DCDC0000000000000000000000DCDCDCDCDCDCDCDCDCDCDCDCDCDCDCDCDCDCDCDCDCDCDCDCDCDC0000000000000000000000000000000000000000000000000000000000000000000000000000000000000000000000000000
310
00000000000000000000000000000000000000000000000000000000000000000000000000000000000000000000000000000000000000000000000000000000000000000000000000000000000000000000DCDCDCDC0000000000DC0000DCDC0000000000000000000000DCDC000000000000000000000000000000000000
310
00000000000000000000000000000000000000000000000000000000000000000000000000000000DCDC0000000000000000000000DCDCDCDCDCDCDCDCDCDCDCDCDCDCDCDCDCDCDCDCDCDCDCDCDCDC00000000000000000000000000000000DCDCDCDCDCDCDCDCDCDCDCDCDCDCDCDC00000000000000000000000000000000
310
000000000000000000000000000000000000000000000000000000000000000000000000000000000000000000000000000000000000000000000000000000000000000000000000000000000000000000000000DCDCDCDC0000000000DC0000DC000000000000000000000000DCDC00000000000000000000000000000000
310
000000000000000000000000000000000000000000000000000000000000000000000000000000000000DCDC0000000000000000000000DCDCDCDCDCDCDCDCDCDCDCDCDCDCDCDCDCDCDCDCDCDC0000000000000000000000000000000000000000DC00DCDCDCDCDCDCDCDCDCDCDCDCDCDC0000000000000000000000000000
310
0000000000000000000000000000000000000000000000000000000000000000000000000000000000000000000000000000000000000000000000000000000000000000000000000000000000000000000000000000DCDCDCDC0000000000DC0000DC000000000000000000000000DCDC0000000000000000000000000000
310
0000000000000000000000000000000000000000000000000000000000000000000000000000000000000000DCDC0000000000000000DCDCDCDCDCDCDCDCDCDCDCDCDCDCDCDCDCDCDCDCDCDCDCDCDC0000000000000000000000000000000000000000DCDCDC00000000000000000000000000000000000000000000000000
310
00000000000000000000000000000000000000000000000000000000000000000000000000000000000000000000000000000000000000000000000000000000000000000000000000000000000000000000000000000000DCDCDCDC0000000000DC0000DC000000000000000000000000DCDC000000000000000000000000
310
00000000000000000000000000000000000000000000000000000000000000000000000000000000000000000000DCDC0000000000000000DCDCDC000000000000000000000000000000000000000000000000000000000000000000000000000000000000DCDCDCDCDCDCDCDCDCDCDCDCDCDCDC0000000000000000000000
310
0000000000000000000000000000000000DCDCDCDCDCDCDCDC0000000000000000000000000000000000000000000000000000000000000000000000000000000000000000000000000000000000000000000000000000000000DCDCDCDC0000000000DC0000DC000000000000000000000000DCDC00000000000000000000
310
000000000000000000000000000000000000000000000000000000000000000000000000000000000000000000000000DCDC0000000000000000DCDCDCDCDCDCDCDCDCDCDCDCDCDCDCDCDCDCDCDCDCDCDCDCDCDCDCDCDCDCDCDC00000000000000000000000000DC00DCDCDCDCDCDCDCDCDCDCDCDCDC000000000000000000
310
00000000000000000000000000000000000000DC00DCDCDCDCDCDC0000000000000000000000000000000000000000000000000000000000000000000000000000000000000000000000000000000000000000000000000000000000DCDCDCDC0000000000DC0000DC000000000000000000000000DCDC0000000000000000
310
0000000000000000000000000000000000000000000000000000000000000000000000000000000000000000000000000000DCDC0000000000000000DCDCDCDCDCDCDCDCDCDCDCDCDCDCDCDCDCDCDCDCDCDCDCDCDCDCDCDCDCDCDCDC00000000000000000000000000DCDCDCDCDCDCDCDCDCDCDCDCDCDCDC00000000000000
310
000000000000000000000000000000000000000000DCDCDC00000000000000000000000000000000000000000000000000000000000000000000000000000000000000000000000000000000000000000000000000000000000000000000DCDCDCDC0000000000DC0000DC000000000000000000000000DCDC000000000000
310
00000000000000000000000000000000000000000000000000000000000000000000000000000000000000000000000000000000DCDC0000000000000000DCDCDCDCDCDCDCDCDCDCDCDCDCDCDCDCDCDCDCDCDCDCDCDCDC0000000000000000000000000000000000000000DC00DCDCDCDCDCDCDCDCDCDCDCDCDC0000000000
310
0000000000000000000000000000000000000000000000DCDCDCDCDCDCDCDCDCDCDCDCDC000000000000000000000000000000000000000000000000000000000000000000000000000000000000000000000000000000000000000000000000DCDCDCDC0000000000DC0000DC000000000000000000000000DCDC00000000
310
000000000000000000000000000000000000000000000000000000000000000000000000000000000000000000000000000000000000DCDC0000000000000000DCDCDCDCDCDCDCDCDCDCDCDCDCDCDCDCDCDCDCDCDCDCDCDC00000000DCDCDC0000000000000000000000000000DCDCDC000000000000000000000000000000
310
00000000000000000000000000000000000000000000000000DCDCDCDCDCDCDCDCDCDCDCDCDC000000000000000000000000000000000000000000000000000000000000000000000000000000000000000000000000000000000000000000000000DCDCDCDC0000000000DC0000DC000000000000000000000000DCDC0000
310
0000000000000000000000000000000000000000000000000000000000000000000000000000000000000000000000000000000000000000DCDC0000000000000000000000000000000000000000000000000000000000000000000000000000DC0000000000000000000000000000DCDCDCDCDCDCDCDCDCDCDCDCDCDCDC00
310
000000000000000000000000DCDCDCDCDCDCDCDC00000000000000000000DCDCDCDCDCDCDCDCDCDCDCDC00000000000000000000000000000000000000000000000000000000000000000000000000000000000000000000000000000000000000000000DCDCDCDC0000000000DC0000DC000000000000000000000000DCDC
310
00000000000000000000000000000000000000000000000000000000000000000000000000000000000000000000000000000000000000000000DCDC000000000000000000000000000000000000000000000000000000000000000000000000000000DC00000000000000000000000000DC00DCDCDCDCDCDCDCDCDCDCDCDC
310
DC00000000000000000000000000DCDC00000000DCDC00000000000000DCDCDCDCDCDCDCDCDCDCDCDCDCDCDC00000000000000000000000000000000000000000000000000000000000000DCDCDCDCDCDCDCDCDC000000000000000000000000000000000000DCDCDCDC0000000000DC0000DC000000000000000000000000
310
DCDC00000000000000000000000000000000000000000000000000000000000000000000000000000000000000000000000000000000000000000000DCDC00000000000000000000000000DC00000000000000000000000000000000000000000000000000DC00000000000000000000000000DCDCDCDCDCDCDCDCDCDCDCDC
310
DCDCDCDCDCDCDC000000000000000000DCDC00000000DCDC00000000000000DCDCDC00000000000000000000000000000000000000000000000000000000000000000000000000000000DCDCDCDCDCDCDCDCDCDCDCDC000000000000000000000000000000000000DCDCDCDC0000000000DC0000DC00000000000000000000
310
0000DCDC00000000000000000000000000000000000000000000000000000000000000000000000000000000000000000000000000000000000000000000DCDC000000000000000000000000DCDC00000000000000000000000000000000000000000000000000DC0000000000000000000000DCDCDCDCDCDCDCDCDCDCDCDC
310
DCDCDCDCDCDCDCDC000000DC000000000000DCDC00000000DCDC00000000000000DCDCDCDCDCDCDCDCDCDCDCDCDCDC0000000000000000000000000000000000000000000000000000000000DC00DCDCDCDCDCDCDC000000000000000000000000000000000000000000DCDCDCDC0000000000DC0000DC0000000000000000
310
00000000DCDC00000000000000000000000000000000000000000000000000000000000000000000000000000000000000000000000000000000000000000000DCDC000000000000000000000000DCDC00000000000000000000000000000000000000000000000000DC0000000000000000000000DC000000000000000000
310
00000000000000000000000000DCDC0000000000DCDC00000000DCDC00000000000000DC00DCDCDCDCDCDCDCDCDCDCDCDC0000000000000000000000000000000000000000000000000000000000DCDCDCDCDCDCDCDCDC000000000000000000000000000000000000000000DCDCDCDC0000000000DC0000DC000000000000
310
000000000000DCDC00000000000000000000000000000000000000000000000000000000000000000000000000000000000000000000000000000000000000000000DCDC000000000000000000000000DCDC0000000000000000000000000000000000000000000000000000DC000000000000000000DC0000000000000000
310
000000000000000000000000000000DCDC000000DCDCDCDC000000DCDCDC000000000000DCDCDCDCDCDCDCDCDCDCDCDCDCDCDCDCDCDCDCDC000000000000000000000000000000000000000000000000000000000000000000000000000000000000000000000000000000000000DCDCDCDC0000000000DC0000DC00000000
310
0000000000000000DCDC00000000000000000000000000000000000000000000000000000000000000000000000000000000000000000000000000000000000000000000DCDC000000000000000000000000DCDC000000000000000000000000000000000000000000000000DCDCDCDCDCDCDCDCDCDC0000DC000000000000
310
0000000000000000000000000000000000DCDC000000DCDCDCDC00000000DCDCDC0000000000DCDCDCDCDCDCDCDCDCDCDCDCDCDCDCDCDCDCDCDC000000000000000000000000000000000000000000000000000000DCDCDCDCDCDCDCDCDC000000000000000000000000000000000000DCDCDCDC0000000000DC0000DC0000
310
00000000000000000000DCDC00000000000000000000000000000000000000000000000000000000000000000000000000000000000000000000000000000000000000000000DCDC000000000000000000000000DCDC000000000000000000000000000000000000000000000000DC0000DC0000000000DC00DC0000000000
310
00000000000000000000000000000000000000DCDC000000DCDCDCDC00000000DCDC0000000000000000000000000000000000000000000000000000000000000000000000000000000000000000000000000000DCDCDCDCDCDCDCDCDCDCDCDCDCDC00000000000000000000000000000000DCDCDCDC0000000000DC0000DC
310
000000000000000000000000DCDC00000000000000000000000000000000000000000000000000000000000000000000000000000000000000000000000000000000000000000000DCDC000000000000000000000000DCDC000000000000000000000000000000000000000000000000DC0000000000000000DC00DC000000
310
000000000000000000000000000000000000000000DCDC000000DC00DCDCDCDCDCDCDCDCDC0000000000DCDCDCDCDCDCDCDCDCDCDCDCDCDCDCDCDCDCDCDCDCDCDCDCDCDC000000000000000000000000000000000000DCDCDCDCDCDCDCDCDCDCDCDCDCDC00000000000000000000000000000000DCDCDCDC0000000000DC00
310
00DC000000000000000000000000DCDC00000000000000000000000000000000000000000000000000000000000000000000000000000000000000000000000000000000000000000000DCDC0000000000000000000000DCDCDCDCDCDC000000000000DCDCDCDCDCDCDCDCDCDCDCDCDCDCDCDCDCDCDCDCDCDCDCDCDCDCDCDC
310
DCDCDCDCDCDCDCDCDCDCDCDCDC000000000000DCDCDCDCDCDCDC0000DC00000000000000000000DC00000000DCDCDCDCDCDCDCDCDCDCDCDCDCDCDCDCDCDCDCDCDCDCDCDCDCDC000000000000000000000000000000000000000000000000000000000000000000000000000000000000000000000000DCDCDCDC0000000000
310
DC0000DC000000000000000000000000DCDC00000000000000000000000000000000000000000000000000000000000000000000000000000000000000000000000000000000000000000000DCDC0000000000000000DCDCDCDCDCDC0000DCDCDCDCDCDCDCDCDCDC000000000000000000000000000000DCDCDCDCDC000000
310
000000000000000000000000DCDCDCDCDCDCDCDCDCDCDC00DC00DCDCDCDCDCDCDCDCDC00000000000000DC000000DCDCDCDCDCDCDCDCDCDCDC000000000000000000000000000000000000000000000000000000000000000000DCDCDCDCDCDCDCDCDCDCDCDCDCDCDCDCDC00000000000000000000000000DCDCDCDC000000
310
0000DC0000DC000000000000000000000000DCDC00000000000000000000000000000000000000000000000000000000000000000000000000000000000000000000000000000000000000000000DCDCDCDCDCDCDCDCDCDCDCDCDCDCDCDCDCDCDCDCDCDCDCDCDCDCDCDCDCDCDCDCDCDCDCDCDCDCDCDCDCDCDCDCDCDCDCDCDC
310
DCDCDCDCDCDCDCDCDCDCDCDCDCDCDCDCDCDCDCDCDCDCDCDCDCDCDCDCDCDCDCDCDCDCDCDCDCDCDCDCDCDC000000DCDC00DCDCDCDCDCDCDCDCDCDC00000000000000000000000000000000000000000000000000000000000000000000DCDCDCDCDCDCDCDCDCDCDCDCDCDCDCDC0000DCDC00000000000000000000DCDCDCDC00
310
00000000DC0000DC000000000000000000000000DCDC00000000000000000000000000000000000000000000000000000000000000000000000000000000000000000000000000000000000000000000DCDC0000000000000000000000DCDCDCDCDCDC0000DC000000DCDCDCDCDCDCDCDCDCDCDCDCDCDCDCDCDCDCDCDCDCDC
310
DCDCDCDCDCDCDCDCDCDCDCDCDCDCDCDCDCDCDC000000000000DCDCDCDC00DCDC0000DCDC00DC00000000000000000000000000000000000000000000000000000000000000000000000000000000000000000000000000000000000000000000000000000000000000000000000000000000DCDC0000000000000000DCDCDC
310
DC0000000000DC0000DC000000000000000000000000DCDC00000000000000000000000000000000000000000000000000000000000000000000000000000000000000000000000000000000000000000000DCDC000000000000000000000000DCDC0000000000DC000000000000000000000000000000000000DC000000DC
310
DC000000DC000000000000000000000000000000000000000000000000DC00DCDC000000000000DC000000000000000000000000000000000000000000000000000000000000000000000000000000000000000000000000000000000000000000000000000000000000000000000000000000000000DCDC000000000000DC
310
DCDCDC0000000000DC0000DC000000000000000000000000DCDC00000000000000000000000000000000000000000000000000000000000000000000000000000000000000000000000000000000000000000000DCDC000000000000000000000000DCDC000000000000DC0000000000000000000000000000000000DC0000
310
00DCDC000000DC0000000000000000000000000000000000000000000000DCDC00DCDC00000000000000DC00000000000000000000000000000000000000000000000000000000000000000000000000000000000000000000000000000000000000000000000000000000000000000000000000000000000000DCDC000000
310
00DCDCDCDC0000000000DC0000DC000000000000000000000000DCDC00000000000000000000000000000000000000000000000000000000000000000000000000000000000000000000000000000000000000000000DCDC0000000000DCDCDCDCDCDCDCDCDC000000000000DC0000000000000000000000000000000000DC
310
DCDCDCDCDCDCDCDCDC0000000000000000000000000000000000000000000000DC0000DCDCDCDCDCDCDCDCDCDC000000000000000000000000000000000000000000000000000000000000000000000000000000000000000000000000000000000000000000000000000000000000000000000000000000000000000000DC
310
DCDC00DCDCDCDC0000000000DC0000DC000000000000000000000000DCDC00000000000000000000000000000000000000000000000000000000000000000000000000000000000000000000000000000000000000000000DCDC000000000000000000000000000000000000000000DC000000000000000000000000000000
310
000000000000DC0000000000000000000000000000000000000000000000000000DC00000000000000000000000000DC00000000000000000000000000000000000000000000000000000000000000000000000000000000000000000000000000000000000000000000000000000000000000000000000000000000000000
310
000000DCDCDCDCDCDC0000000000DC0000DC000000000000000000000000DCDC00000000000000000000000000000000000000000000000000000000000000000000000000000000000000000000000000000000000000000000DCDC000000000000000000000000000000000000000000DC00000000000000000000000000
310
000000000000000000DC000000000000000000DCDCDCDCDCDCDCDCDCDCDCDCDC000000DC00000000000000000000000000DC0000000000000000000000000000000000000000000000000000000000000000000000000000000000000000000000000000000000000000000000000000000000000000000000000000000000
310
00000000000000DCDCDCDC0000000000DC0000DC000000000000000000000000DCDC00000000000000000000000000000000000000000000000000000000000000000000000000000000000000000000000000000000000000000000DCDC00000000000000000000000000000000000000000000DC00DCDCDCDCDCDCDCDCDC
310
DCDCDCDC00000000000000DC000000000000000000DCDCDCDCDCDCDCDCDCDCDCDCDC00DCDC000000000000000000000000000000DC00DCDCDCDCDCDCDCDCDCDCDCDCDCDCDCDCDCDCDCDCDCDCDCDCDCDCDCDCDCDCDCDCDCDCDC0000000000000000000000000000000000000000000000000000000000000000000000000000
310
000000000000000000DCDCDCDC0000000000DC0000DC000000000000000000000000DCDC00000000000000000000000000000000000000000000000000000000000000000000000000000000000000000000000000000000000000000000DCDC00000000000000000000000000000000000000000000DCDCDCDCDCDCDCDCDC
310
DCDCDCDCDCDC00000000000000DC00000000000000000000000000000000000000000000000000000000000000000000000000000000DCDCDCDCDCDCDCDCDCDCDCDCDCDCDCDCDCDCDCDCDCDCDCDCDCDCDCDCDCDCDCDCDCDCDCDCDC000000000000000000000000000000000000000000000000000000000000000000000000
310
0000000000000000000000DCDCDCDC0000000000DC0000DC000000000000000000000000DCDC00000000000000000000000000000000000000000000000000000000000000000000000000000000000000000000000000000000000000000000DCDC0000000000000000000000000000000000000000000000000000000000
310
000000000000000000000000000000DC000000000000000000000000000000000000000000000000000000000000000000000000000000000000000000000000000000000000000000000000000000000000000000000000000000000000000000000000000000000000000000000000000000000000000000000000000000
310
00000000000000000000000000DCDCDCDC0000000000DC0000DC000000000000000000000000DCDC00000000000000000000000000000000000000000000000000000000000000000000000000000000000000000000000000000000000000000000DCDC000000000000000000000000000000000000000000000000000000
310
000000000000000000000000000000000000DC000000000000000000000000000000000000000000000000000000000000000000000000000000000000000000000000000000000000000000000000000000000000000000000000000000000000000000000000000000000000000000000000000000000000000000000000
310
000000000000000000000000000000DCDCDCDC0000000000DC0000DC000000000000000000000000DCDC00000000000000000000000000000000000000000000000000000000000000000000000000000000000000000000000000000000000000000000DCDC00000000000000000000000000000000000000000000000000
310
0000000000000000000000000000000000000000DC00DCDCDCDCDCDCDCDCDCDCDCDCDCDCDCDCDCDCDCDCDCDCDCDCDCDC00000000000000000000000000000000000000000000000000000000000000000000000000000000000000000000000000000000000000000000000000000000000000000000000000000000000000
310
00000000000000000000000000000000DCDCDCDCDC0000000000DC00DCDC000000000000000000000000DCDC00000000000000000000000000000000000000000000000000000000000000000000000000000000000000000000000000000000000000000000DCDC0000000000000000000000000000000000000000000000
310
00000000000000000000000000000000000000000000DCDCDCDCDCDCDCDCDCDCDCDCDCDCDCDCDCDCDCDCDCDCDCDCDCDCDCDC0000000000000000000000000000000000000000000000000000000000000000000000000000000000000000000000000000000000000000000000000000000000000000000000000000000000
310
000000000000000000000000000000000000DCDCDCDCDC0000000000DC00DCDCDCDC00000000000000000000DCDC00000000000000000000000000000000000000000000000000000000000000000000000000000000000000000000000000000000000000000000DCDC000000000000000000000000000000000000000000
310
00000000000000000000000000000000000000000000000000000000000000000000000000000000000000000000000000000000000000000000000000000000000000000000000000000000000000000000000000000000000000000000000000000000000000000000000000000000000000000000000000000000000000
310
0000000000000000000000000000000000000000DCDCDCDCDC0000000000DC00DCDCDCDC00000000000000000000DCDC00000000000000000000000000000000000000000000000000000000000000000000000000000000000000000000000000000000000000000000DCDC00000000000000000000000000000000000000
310
00000000000000000000000000000000000000000000000000000000000000000000000000000000000000000000000000000000000000000000000000000000000000000000000000000000000000000000000000000000000000000000000000000000000000000000000000000000000000000000000000000000000000
310
00000000000000000000000000000000000000000000DCDCDCDCDC0000000000DC00DCDCDCDC00000000000000000000DCDC00000000000000000000000000000000000000000000000000000000000000000000000000000000000000000000000000000000000000000000DCDC0000000000000000000000000000000000
310
00000000000000000000000000000000000000000000000000000000000000000000000000000000000000000000000000000000000000000000000000000000000000000000000000000000000000000000000000000000000000000000000000000000000000000000000000000000000000000000000000000000000000
310
000000000000000000000000000000000000000000000000DCDCDCDCDC0000000000DC00DCDCDCDC00000000000000000000DCDC00000000000000000000000000000000000000000000000000000000000000000000000000000000000000000000000000000000000000000000DCDC000000000000000000000000000000
310
00000000000000000000000000000000000000000000000000000000000000000000000000000000000000000000000000000000000000000000000000000000000000000000000000000000000000000000000000000000000000000000000000000000000000000000000000000000000000000000000000000000000000
310
0000000000000000000000000000000000000000000000000000DCDCDCDCDC0000000000DC00DCDCDCDC00000000000000000000DCDC00000000000000000000000000000000000000000000000000000000000000000000000000000000000000000000000000000000000000000000DCDC00000000000000000000000000
310
00000000000000000000000000000000000000000000000000000000000000000000000000000000000000000000000000000000000000000000000000000000000000000000000000000000000000000000000000000000000000000000000000000000000000000000000000000000000000000000000000000000000000
310
00000000000000000000000000000000000000000000000000000000DCDCDCDCDC0000000000DC00DCDCDCDC00000000000000000000DCDC00000000000000000000000000000000000000000000000000000000000000000000000000000000000000000000000000000000000000000000DCDC000000DCDCDCDCDCDCDCDC
310
DCDCDCDCDCDCDCDCDCDCDCDCDCDCDCDCDCDCDCDCDCDCDCDCDCDCDCDCDCDCDCDCDCDC000000000000000000000000000000000000000000000000000000000000000000000000000000000000000000000000000000000000000000000000000000000000000000000000000000000000000000000000000000000000000000
310
000000000000000000000000000000000000000000000000000000000000DCDCDCDCDC0000000000DC00DCDCDCDC00000000000000000000DCDC00000000000000000000000000000000000000000000000000000000000000000000000000000000000000000000000000000000000000000000DCDC000000DCDCDCDCDCDC
310
DCDCDCDCDCDCDCDCDCDCDCDCDCDCDCDCDCDCDCDCDCDCDCDCDCDCDCDCDCDCDCDCDCDCDCDC00000000000000000000000000000000000000000000000000000000000000000000000000000000000000000000000000000000000000000000000000000000000000000000000000000000000000000000000000000000000000
310
0000000000000000000000000000000000000000000000000000000000000000DCDCDCDCDC0000000000DC00DCDCDCDC00000000000000000000DCDC00000000000000000000000000000000000000000000000000000000000000000000000000000000000000000000000000000000000000000000DCDC000000DCDCDCDC
310
DCDCDCDCDCDCDCDCDCDCDCDCDCDCDCDCDCDCDCDCDCDCDCDCDCDCDCDCDCDCDCDCDCDCDCDCDCDCDCDCDCDCDCDCDCDCDCDCDCDC0000000000000000000000000000000000000000000000000000000000000000000000000000000000000000000000000000000000000000000000000000000000000000000000000000000000
310
00000000000000000000000000000000000000000000000000000000000000000000DCDCDCDCDC0000000000DC00DCDCDCDC00000000000000000000DCDC00000000000000000000000000000000000000000000000000000000000000000000000000000000000000000000000000000000000000000000DCDC000000DCDC
310
DCDCDCDCDCDCDCDCDCDCDCDCDCDCDCDCDCDCDCDCDCDCDCDCDCDCDCDCDCDCDCDCDCDCDCDCDCDCDCDCDCDCDCDCDCDCDCDCDCDCDCDC000000000000000000000000000000000000000000000000000000000000000000000000000000000000000000000000000000000000000000000000000000000000000000000000000000
310
000000000000000000000000000000000000000000000000000000000000000000000000DCDCDCDCDC0000000000DC00DCDCDCDC00000000000000000000DCDC00000000000000000000000000000000000000000000000000000000000000000000000000000000000000000000000000000000000000000000DCDC000000
310
DCDCDCDCDCDCDCDCDCDCDCDCDCDCDCDCDCDCDCDCDCDCDCDCDCDCDCDCDCDCDCDCDCDCDCDCDCDCDCDCDCDCDCDCDCDCDCDCDCDCDCDCDCDCDCDCDC00000000000000000000000000000000000000000000000000000000000000000000000000000000000000000000000000000000000000000000000000000000000000000000
310
0000000000000000000000000000000000000000000000000000000000000000000000000000DCDCDCDCDC0000000000DC00DCDCDCDC00000000000000000000DCDC00000000000000000000000000000000000000000000000000000000000000000000000000000000000000000000000000000000000000000000DCDC00
310
0000DCDCDCDCDCDCDCDCDCDCDCDCDCDCDCDCDCDCDCDCDCDCDCDCDCDCDCDCDCDCDCDCDCDCDCDCDCDCDCDCDCDCDCDCDCDCDCDCDCDCDCDCDCDCDCDCDC0000000000000000000000000000000000000000000000000000000000000000000000000000000000000000000000000000000000000000000000000000000000000000
310
00000000000000000000000000000000000000000000000000000000000000000000000000000000DCDCDCDCDC0000000000DC00DCDCDCDC00000000000000000000DCDC00000000000000000000000000000000000000000000000000000000000000000000000000000000000000000000000000000000000000000000DC
310
DC000000DCDCDCDCDCDCDCDCDCDCDCDCDCDCDCDCDCDCDCDCDCDCDCDCDCDCDCDCDCDCDCDCDCDCDCDCDCDCDCDCDCDCDCDCDCDCDCDCDCDCDCDCDCDCDCDC00000000000000000000000000000000000000000000000000000000000000000000000000000000000000000000000000000000000000000000000000000000000000
310
000000000000000000000000000000000000000000000000000000000000000000000000000000000000DCDCDCDCDC0000000000DC00DCDCDCDC00000000000000000000DCDC000000000000000000000000000000000000000000000000000000000000000000000000000000000000000000000000000000000000000000
310
00DCDC000000DCDCDCDCDCDCDCDCDCDCDCDCDCDCDCDCDCDCDCDCDCDCDCDCDCDCDCDCDCDCDCDCDCDCDCDCDCDCDCDCDCDCDCDCDCDCDCDCDCDCDCDCDCDCDCDC0000000000000000000000000000000000000000000000000000000000000000000000000000000000000000000000000000000000000000000000000000000000
310
0000000000000000000000000000000000000000000000000000000000000000000000000000000000000000DCDCDC00DC0000000000DC00DCDCDCDC00000000000000000000DCDC00000000000000000000000000000000000000000000000000000000000000000000000000000000000000000000000000000000000000
310
000000DCDC0000000000000000000000000000000000000000000000000000000000000000000000000000000000000000000000000000000000000000000000000000000000000000000000000000000000000000000000000000000000000000000000000000000000000000000000000000000000000000000000000000
310
00000000000000000000000000000000000000000000000000000000000000000000000000000000000000000000DCDCDCDCDC0000000000DC00DCDCDCDC00000000000000000000DCDC0000000000000000000000000000000000000000000000000000000000000000000000000000000000000000000000000000000000
310
0000000000DCDC00DCDCDCDCDCDCDC00000000000000000000000000000000000000000000000000000000000000000000000000000000000000000000000000000000000000000000000000000000000000000000000000000000000000000000000000000000000000000000000000000000000000000000000000000000
310
000000000000000000000000000000000000000000000000000000000000000000000000000000000000000000000000DCDCDCDCDC0000000000DC00DCDCDCDC00000000000000000000DCDC000000000000000000000000000000000000000000000000000000000000000000000000000000000000000000000000000000
310
00000000000000DCDC00DCDCDCDCDCDC000000000000000000000000000000000000000000000000000000000000000000000000000000000000000000000000000000000000000000000000000000000000000000000000000000000000000000000000000000000000000000000000000000000000000000000000000000
310
0000000000000000000000000000000000000000000000000000000000000000000000000000000000000000000000000000DCDCDCDCDC0000000000DC00DCDCDCDC00000000000000000000DCDC00000000000000000000000000000000000000000000000000000000000000000000000000000000000000000000000000
310
000000000000000000DCDC0000000000000000000000000000000000000000000000000000000000000000000000000000000000000000000000000000000000000000000000000000000000000000000000000000000000000000000000000000000000000000000000000000000000000000000000000000000000000000
310
00000000000000000000000000000000000000000000000000000000000000000000000000000000000000000000000000000000DCDCDCDCDC0000000000DC00DCDCDCDC00000000000000000000DCDC0000000000000000000000000000000000000000000000000000000000000000000000000000000000000000000000
310
0000000000000000000000DCDC000000000000000000000000000000000000000000000000000000000000000000000000000000000000000000000000000000000000000000000000000000000000000000000000000000000000000000000000000000000000000000000000000000000000000000000000000000000000
310
000000000000000000000000000000000000000000000000000000000000000000000000000000000000000000000000000000000000DCDCDCDCDC0000000000DC00DCDCDCDC00000000000000000000DCDC000000000000000000000000000000000000000000000000000000000000000000000000000000000000000000
310
00000000000000000000000000DCDC0000DCDCDCDCDCDCDCDCDCDCDCDCDCDCDCDCDCDCDCDC000000000000000000000000000000000000000000000000000000000000000000000000000000000000000000000000000000000000000000000000000000000000000000000000000000000000000000000000000000000000
310
0000000000000000000000000000000000000000000000000000000000000000000000000000000000000000000000000000000000000000DCDCDCDCDC0000000000DC00DCDCDCDC00000000000000000000DCDC00000000000000000000000000000000000000000000000000000000000000000000000000000000000000
310
000000000000000000000000000000DCDC0000DCDCDCDCDCDCDCDCDCDCDCDCDCDCDCDCDCDCDCDC00000000000000000000000000000000000000000000000000000000000000000000000000000000000000000000000000000000000000000000000000000000000000000000000000000000000000000000000000000000
310
0000000000000000000000000000000000DCDCDCDCDCDCDCDCDCDCDCDCDCDCDCDCDCDCDCDCDCDCDCDCDCDCDCDCDCDCDCDCDCDCDC000000000000DCDCDCDCDC0000000000DC00DCDCDCDC00000000000000000000DCDC0000000000000000000000000000000000000000000000000000000000000000000000000000000000
310
0000000000000000000000000000000000DCDC0000DCDCDCDCDCDCDCDCDCDCDCDCDCDCDCDCDCDCDCDCDCDCDCDCDCDCDCDCDCDCDCDCDCDCDCDCDCDCDCDC000000000000000000000000000000000000000000000000000000000000000000000000000000000000000000000000000000000000000000000000000000000000
310
00000000000000000000000000000000000000DCDCDCDCDCDCDCDCDCDCDCDCDCDCDCDCDCDCDCDCDCDCDCDCDCDCDCDCDCDCDCDCDCDCDC000000000000DCDCDCDCDC0000000000DC000000000000000000000000000000DCDC000000000000000000000000000000000000000000000000000000000000000000000000000000
310
00000000000000000000000000000000000000DCDC0000DCDCDCDCDCDCDCDCDCDCDCDCDCDCDCDCDCDCDCDCDCDCDCDCDCDCDCDCDCDCDCDCDCDCDCDCDCDCDCDC00000000000000000000000000000000000000000000000000000000000000000000000000000000000000000000000000000000000000000000000000000000
310
000000000000000000000000000000000000000000DCDCDCDCDCDCDCDCDCDCDCDCDCDCDCDCDCDCDCDCDCDCDCDCDCDCDCDCDCDCDCDCDCDCDC000000000000DCDCDCDCDC0000000000DC000000000000000000000000000000DCDC00000000000000000000000000000000000000000000000000000000000000000000000000
310
000000000000000000000000000000000000000000DCDC0000000000000000000000000000000000000000000000000000000000000000000000000000000000000000000000000000000000000000000000000000000000000000000000000000000000000000000000000000000000000000000000000000000000000000
310
0000000000000000000000000000000000000000000000DCDCDCDCDCDCDCDCDCDCDCDCDCDCDCDCDCDCDCDCDCDCDCDCDCDCDCDCDCDCDCDCDCDCDC000000000000DCDCDCDCDC0000000000DC0000DC000000000000000000000000DCDC0000000000000000000000000000000000000000000000000000000000000000000000
310
0000000000000000000000000000000000000000000000DCDC0000DCDCDCDCDCDCDCDCDCDCDCDCDCDCDCDCDCDCDCDCDCDCDCDCDCDCDCDCDCDCDCDCDCDCDCDCDC000000000000000000000000000000000000000000000000000000000000000000000000000000000000000000000000000000000000000000000000000000
310
00000000000000000000000000000000DC0000000000000000000000000000000000000000DCDCDCDCDCDCDCDCDCDCDC000000000000000000000000000000000000DCDCDCDCDC0000000000DC0000DC000000000000000000000000DCDC000000000000000000000000000000000000000000000000000000000000000000
310
00000000000000000000000000000000000000000000000000DCDC0000DCDCDCDCDCDCDCDCDCDCDCDCDCDCDCDCDCDCDCDCDCDCDCDCDCDCDCDCDCDCDCDCDCDCDCDCDC00000000000000000000000000000000000000000000000000000000000000000000000000000000000000000000000000000000000000000000000000
310
000000000000000000000000000000000000DCDCDCDCDCDCDCDCDCDCDCDCDCDCDCDCDCDCDCDCDCDCDCDCDCDCDCDCDCDCDCDC0000DCDCDCDCDCDCDCDCDCDCDCDCDCDCDCDCDCDCDCDCDC0000000000DC0000DC000000000000000000000000DCDC00000000000000000000000000000000000000000000000000000000000000
310
000000000000000000000000000000000000000000000000000000DCDC0000DCDCDCDCDCDCDCDCDCDCDCDCDCDCDCDCDC00000000000000000000000000000000000000000000000000000000000000000000000000000000000000000000000000000000000000000000000000000000000000000000000000000000000000
310
0000000000000000000000000000000000000000DC00000000000000000000000000000000000000000000000000000000000000000000000000000000000000000000000000DCDCDCDCDC0000000000DC0000DC000000000000000000000000DCDC0000000000000000000000000000000000000000000000000000000000
310
0000000000000000000000000000000000000000000000000000000000DCDC0000DCDCDCDCDCDCDCDCDCDCDCDCDCDCDCDCDC0000000000000000000000000000000000000000000000000000000000000000000000000000000000000000000000000000000000000000000000000000000000000000000000000000000000
310
00000000000000000000000000000000000000000000DC00000000000000000000000000000000000000000000000000000000000000000000000000000000000000000000000000DCDCDCDCDC0000000000DC0000DC000000000000000000000000DCDC000000000000000000000000000000000000000000000000000000
310
00000000000000000000000000000000000000000000000000000000000000DCDC00000000000000000000000000000000000000000000000000000000000000000000000000000000000000000000000000000000000000000000000000000000000000000000000000000000000000000000000000000000000000000000
310
000000000000000000000000000000000000000000000000DC00000000000000000000000000000000000000000000000000000000000000000000000000000000000000000000000000DCDCDC00DC0000000000DC0000DC000000000000000000000000DCDC00000000000000000000000000000000000000000000000000
310
000000000000000000000000000000000000000000000000000000000000000000DCDC0000DCDCDCDCDCDCDCDCDCDCDCDCDCDCDCDCDCDCDC0000000000000000000000000000000000000000000000000000000000000000000000000000000000000000000000000000000000000000000000000000000000000000000000
310
0000000000000000000000000000000000000000000000000000DC00000000000000000000000000000000000000000000000000000000000000000000000000000000000000000000000000DCDCDCDCDC0000000000DC0000DC000000000000000000000000DCDC0000000000000000000000000000000000000000000000
310
0000000000000000000000000000000000000000000000000000000000000000000000DCDC0000DCDCDCDCDCDCDCDCDCDCDCDCDCDCDCDCDCDCDC000000000000000000000000000000000000000000000000000000000000000000000000000000000000000000000000000000000000000000000000000000000000000000
310
00000000000000000000000000000000000000000000000000000000DC00000000000000000000000000000000000000000000000000000000000000000000000000000000000000000000000000DCDCDCDCDC0000000000DC0000DC000000000000000000000000DCDC000000000000000000000000000000000000000000
310
00000000000000000000000000000000000000000000000000000000000000000000000000DCDC0000DCDCDCDCDCDCDCDCDCDCDCDCDCDCDCDCDCDCDCDCDCDCDCDC0000000000000000000000000000000000000000000000000000000000000000000000000000000000000000000000000000000000000000000000000000
310
000000000000000000000000000000000000000000000000000000000000DC00000000000000000000000000000000000000000000000000000000000000000000000000000000000000000000000000DCDCDCDCDC0000000000DC0000DC000000000000000000000000DCDC00000000000000000000000000000000000000
310
000000000000000000000000000000000000000000000000000000000000000000000000000000DCDC0000DCDCDCDCDCDCDCDCDCDCDCDCDCDCDCDCDCDCDCDCDCDCDC00000000000000000000000000000000000000000000000000000000000000000000000000000000000000000000000000000000000000000000000000
310
00000000000000000000000000000000000000000000000000DCDCDCDCDCDCDCDCDCDCDCDCDCDCDCDCDCDCDCDCDCDCDCDCDCDCDCDCDCDCDCDCDCDCDCDCDCDCDCDCDCDCDCDCDCDCDCDCDCDCDCDCDCDCDCDCDCDCDCDCDCDCDCDCDCDCDCDCDCDCDCDCDCDCDCDCDCDC0000000000DCDC0000000000000000000000000000000000
310
0000000000000000000000000000000000000000000000000000000000000000000000000000000000DCDC000000000000000000000000000000000000000000000000000000000000000000000000000000000000000000000000000000000000000000000000000000000000000000000000000000000000000000000000
310
0000000000000000000000000000000000000000000000000000000000DC00000000DC000000000000000000000000000000000000000000000000000000000000000000000000000000000000000000000000DCDCDC00DCDCDC00DC0000DC0000DC0000000000DC000000000000DCDC000000000000000000000000000000
310
00000000000000000000000000000000000000000000000000000000000000000000000000000000000000DCDC00000000000000000000000000000000000000000000000000000000000000000000000000000000000000000000000000000000000000000000000000000000000000000000000000000000000000000000
310
000000000000000000000000000000000000000000000000000000000000DCDC00000000DC000000DCDCDCDCDCDCDCDCDCDCDCDCDCDCDCDC0000000000000000000000000000000000000000000000000000000000DCDCDC00DCDC00DC000000DC0000DC0000000000DC000000000000DCDC00000000000000000000000000
310
000000000000000000000000000000000000000000000000000000000000000000000000000000000000000000DCDC0000000000000000000000000000000000000000000000000000000000000000000000000000000000000000000000000000000000000000000000000000000000000000000000000000000000000000
310
000000000000000000000000000000000000000000000000000000000000000000DC00000000DC00DCDCDCDCDCDCDCDCDCDCDCDCDCDCDCDCDCDC0000000000000000000000000000000000000000000000000000000000DCDCDC00DCDC00DC0000DCDC0000DC0000000000DC000000000000DCDC0000000000000000000000
310
0000000000000000000000000000000000000000000000000000000000000000000000000000000000000000000000DCDC000000000000000000000000000000000000000000000000000000000000000000000000000000000000000000000000000000000000000000000000000000000000000000000000000000000000
310
0000000000000000000000000000000000000000000000000000000000000000000000DC00000000DC00DC000000000000000000000000000000000000000000000000DCDCDCDCDC0000000000000000000000000000000000DCDCDC00DCDCDC0000DC00DC0000DC0000000000DC000000000000DCDC000000000000000000
310
00000000000000000000000000000000000000000000000000000000000000000000000000000000000000000000000000DCDC00DCDCDCDCDCDCDCDCDCDCDCDCDCDCDCDCDCDCDCDC00000000000000000000000000000000000000000000000000000000000000000000000000000000000000000000000000000000000000
310
00000000000000000000000000000000000000000000000000000000000000000000000000DC00000000DC00DC00000000000000DCDCDCDCDCDCDCDC000000000000000000DCDCDCDCDC0000000000000000000000000000000000DCDCDC00DCDC0000DC0000DC0000DC0000000000DC000000000000DCDC00000000000000
310
000000000000000000000000000000000000000000000000000000000000000000000000000000000000000000000000000000DCDC00DCDCDCDCDCDCDCDCDCDCDCDCDCDCDCDCDCDCDCDC0000000000000000000000000000000000000000000000000000000000000000000000000000000000000000000000000000000000
310
000000000000000000000000000000000000000000000000000000000000000000000000000000DC00000000DC00DC00000000DCDCDCDCDCDCDCDCDCDCDC00000000000000000000000000000000000000000000000000000000000000DCDCDC00DCDC00DC0000DCDC0000DC0000000000DC000000000000DCDC0000000000
310
0000000000000000000000000000000000000000000000000000000000000000000000000000000000000000000000000000000000DCDC00DCDCDCDCDCDCDCDCDCDCDCDCDCDCDCDCDCDCDCDCDCDCDCDCDCDCDCDCDCDCDCDCDCDCDC000000000000000000000000000000000000000000000000000000000000000000000000
310
000000000000000000000000000000000000000000000000000000000000000000000000000000000000DCDC0000DC00DC00000000DC00DCDCDCDCDCDCDC0000000000000000000000DCDCDCDCDCDCDCDC0000000000000000000000000000DCDCDC00DCDCDC0000DC00DC0000DC0000000000DC000000000000DCDC000000
310
00000000000000000000000000000000000000000000000000000000000000000000000000000000000000000000000000000000000000DCDC00DCDCDCDCDCDCDCDCDCDCDCDCDCDCDCDCDCDCDCDCDCDCDCDCDCDCDCDCDCDCDCDCDCDCDC00000000000000000000000000000000000000000000000000000000000000000000
310
000000000000000000000000000000000000000000000000000000000000000000000000000000000000DCDCDCDC0000DC00DC00000000DCDCDCDCDCDCDCDCDC0000000000000000000000DCDCDCDCDCDCDC00DCDCDCDC000000000000000000DCDCDCDCDCDCDC0000DC0000DC0000DC0000000000DC000000000000DCDC00
310
000000000000000000000000000000000000000000000000000000000000000000000000000000000000000000000000000000000000000000DCDC00DCDCDCDCDCDCDCDCDCDCDCDCDCDCDCDCDCDCDCDCDCDCDCDCDC000000000000000000000000000000000000000000000000000000000000000000000000000000000000
310
0000000000000000000000000000000000000000000000000000000000000000000000000000000000000000DCDCDCDC0000DC00DC000000000000000000000000000000000000000000000000000000000000000000000000DC0000000000000000DCDCDC000000DC00DC0000DCDC0000DC0000000000DC000000000000DC
310
DC00000000000000000000000000000000000000000000000000000000000000000000000000000000000000000000000000000000000000000000DCDC00DCDCDCDCDCDCDCDCDCDCDCDCDCDCDCDCDCDCDCDCDCDCDCDCDC00000000000000000000000000000000000000000000000000000000000000000000000000000000
310
00000000000000000000000000000000000000000000000000000000000000000000000000000000000000000000DCDCDCDC0000DC00DC00000000000000DCDCDCDCDCDCDCDC000000000000000000000000000000000000000000DC0000000000000000DCDCDCDCDCDCDCDC0000DC00DC0000DC0000000000DC0000000000
310
00DCDC00000000000000000000000000000000000000000000000000000000000000000000000000000000000000000000000000000000000000000000DCDC0000DCDCDCDCDCDCDCDCDCDCDCDCDCDCDCDCDCDCDCDCDCDCDCDCDCDCDCDCDCDCDCDCDCDC00000000000000000000000000000000000000000000000000000000
310
000000000000000000000000000000000000000000000000000000000000000000000000000000000000000000000000DCDCDCDC0000DC0000DC000000DCDCDCDCDCDCDCDCDCDCDCDCDCDC00000000000000000000000000000000000000DC000000DCDCDCDCDCDCDCDCDCDCDCDCDCDCDCDCDCDC00DC0000000000DC000000
310
000000DCDC00000000000000000000000000000000000000000000000000000000000000000000000000000000000000000000000000000000000000000000DCDC0000DCDCDCDCDCDCDCDCDCDCDCDCDCDCDCDCDCDCDCDCDCDCDCDCDCDCDCDCDCDCDCDCDCDC0000000000000000000000000000000000000000000000000000
310
0000000000000000000000000000000000000000000000000000000000000000000000000000000000000000000000000000DCDCDCDC0000DC0000DC000000DCDCDCDCDCDCDCDCDCDCDCDCDCDC00000000000000000000000000000000000000DC00000000000000000000000000000000000000000000DC00000000DCDC00
310
0000000000DCDC00000000000000000000000000000000000000000000000000000000000000000000000000000000000000000000000000000000000000000000DCDC0000DCDCDCDCDCDCDCDCDCDCDCDCDCDCDCDCDCDCDCDCDCDCDCDCDCDCDCDC000000000000000000000000000000000000000000000000000000000000
310
00000000000000000000000000000000000000000000000000000000000000000000000000000000000000000000000000000000DCDCDCDC0000DC0000DC00000000000000000000000000000000000000000000000000000000000000000000000000DC0000DCDCDCDCDCDCDCDCDCDCDCDCDCDCDCDCDCDC00DC00000000DC
310
DC000000000000DCDC00000000000000000000000000000000000000000000000000000000000000000000000000000000000000000000000000000000000000000000DCDC0000DCDCDCDCDCDCDCDCDCDCDCDCDCDCDCDCDCDCDCDCDCDCDCDCDCDCDCDC00000000000000000000000000000000000000000000000000000000
310
0000000000000000000000000000000000000000000000000000000000000000000000000000000000000000000000000000000000000000DCDC0000DC0000DC000000DCDCDCDCDCDCDCDCDCDCDCDCDCDCDCDCDCDCDCDC0000000000000000000000000000DC00000000DCDCDCDCDCDCDCDCDC00DCDC00DCDC0000DC000000
310
00DCDC000000000000DCDC00000000000000000000000000000000000000000000000000000000000000000000000000000000000000000000000000000000000000000000DCDC0000000000000000000000000000000000000000000000000000000000000000000000000000000000000000000000000000000000000000
310
00000000000000000000000000000000000000000000000000000000000000000000000000000000000000000000000000000000000000000000DCDC0000DC0000DC000000DCDCDCDCDCDCDCDCDCDCDCDCDCDCDCDCDCDCDC0000DCDCDC0000000000000000000000DC0000DCDCDC0000000000DCDCDC0000DC00DC0000DC00
310
000000DCDC000000000000DCDC00000000000000000000000000000000000000000000000000000000000000000000000000000000000000000000000000000000000000000000DCDC0000DCDCDCDCDCDCDCDCDCDCDCDCDCDCDCDCDCDCDCDCDCDCDCDCDCDCDC00000000000000000000000000000000000000000000000000
310
00000000000000000000000000000000000000000000000000000000000000000000000000000000000000000000000000000000000000000000000000000000DC0000DC000000000000000000000000000000000000000000000000000000DC00000000000000000000DC0000DCDCDC0000000000DCDC0000DC0000DC0000
310
DC00000000DCDC000000000000DCDC00000000000000000000000000000000000000000000000000000000000000000000000000000000000000000000000000000000000000000000DCDC0000DCDCDCDCDCDCDCDCDCDCDCDCDCDCDCDCDCDCDCDCDCDCDCDCDCDC000000000000000000000000000000000000000000000000
310
00000000000000000000000000000000000000000000000000000000000000000000000000000000000000000000000000000000000000000000000000DC00000000DC0000DC000000000000000000000000000000000000000000000000000000DC00000000000000000000DCDCDCDC00DC0000000000DCDC00DC000000DC
310
0000DC00000000DCDC000000000000DCDC00000000000000000000000000000000000000000000000000000000000000000000000000000000000000000000000000000000000000000000DCDC0000000000000000000000000000000000000000000000000000000000000000000000000000000000000000000000000000
310
000000000000000000000000000000000000000000000000000000000000000000000000000000000000000000000000000000000000000000000000000000DC00000000DC0000DC00000000000000000000000000000000000000000000000000000000DC00000000000000000000DCDCDCDC000000000000DCDCDC000000
310
DCDC0000DC00000000DCDC000000000000DCDC00000000000000000000000000000000000000000000000000000000000000000000000000000000000000000000000000000000000000000000DCDC000000000000000000000000000000000000000000000000000000000000000000000000000000000000000000000000
310
0000000000000000000000000000000000000000000000000000000000000000000000000000000000000000000000000000000000000000000000000000000000DC00000000DC0000DCDC000000000000000000000000000000000000000000000000000000DC0000000000000000000000DCDC00000000000000DCDC0000
310
00DC00DC0000DC00000000DCDC000000000000DCDC00000000000000000000000000000000000000000000000000000000000000000000000000000000000000000000000000000000000000000000DCDC00000000000000000000000000000000000000000000000000000000000000000000000000000000000000000000
310
00000000000000000000000000000000000000000000000000000000000000000000000000000000000000000000000000000000000000000000000000000000000000DC00000000DC0000DCDC00000000000000000000000000000000000000000000000000000000DC0000000000000000DCDC00DC00000000000000DCDC
310
00DCDC0000DC0000DC00000000DCDC000000000000DCDC00000000000000000000000000000000000000000000000000000000000000000000000000000000000000000000000000000000000000000000DCDC0000DCDCDCDCDCDCDCDCDCDCDCDCDCDCDCDCDCDCDCDCDCDCDCDCDCDCDCDCDCDCDCDCDCDC0000000000000000
310
0000000000000000000000000000000000000000000000000000000000000000000000000000000000000000000000000000000000000000000000000000000000000000DCDC00000000DC00DCDCDC0000000000000000000000000000DC00DC0000000000000000000000DC000000000000DCDCDC00DC0000000000000000
310
DCDCDC000000DCDC0000DCDC000000DCDC000000000000DCDC00000000000000000000000000000000000000000000000000000000000000000000000000000000000000000000000000000000000000000000DCDC0000DCDCDCDCDCDCDC000000000000000000DCDC0000000000DCDC00000000000000DCDC000000000000
310
0000000000000000000000000000000000000000000000000000000000000000000000000000000000000000000000000000000000000000000000000000000000000000000000DC000000000000DCDCDC0000000000000000000000000000DC00DC0000000000000000000000DC000000DCDCDCDCDCDCDC00000000000000
310
0000DCDC000000DC00DC0000DCDC0000000000000000000000DCDC00000000000000000000000000000000000000000000000000000000000000000000000000000000000000000000000000000000000000000000DCDC0000DCDCDCDCDCDCDC000000000000000000DCDC0000000000DCDC00000000000000DCDC00000000
310
000000000000000000000000000000000000000000000000000000000000000000000000000000000000000000000000000000000000000000000000000000000000000000000000DCDCDCDCDC00DCDCDCDCDCDCDCDCDCDCDCDCDCDCDCDCDCDCDCDC00DCDCDCDCDCDCDCDCDCDCDCDCDCDCF5DCDCDCDCDCDCDCDCDCDCDCDCDC
310
DCDCDCDCDCDCDCDCDCDCDCDCDCDCDCDC00000000DC000000000000DCDC00000000000000000000000000000000000000000000000000000000000000000000000000000000000000000000000000000000000000000000DCDC0000DCDCDCDCDCDCDCDCDCDCDCDCDCDCDCDCDCDCDCDCDCDCDCDCDCDCDCDCDCDCDCDCDCDC0000
310
0000000000000000000000000000000000000000000000000000000000000000000000000000000000000000000000000000000000000000000000000000000000000000000000000000000000000000DCDCDCDCDCDCDCDCDCDCDCDCDCDCDCDCDCDCDCDC00DCDCDCDCDCDCDCDCDCDCDCDCDCDCDCDCDCDCDCDCDCDCDCDCDCDC
310
DCDCDCDCDCDCDCDCDC0000DC00DC0000000000000000DC000000000000DCDC00000000000000000000000000000000000000000000000000000000000000000000000000000000000000000000000000000000000000000000DCDC0000DCDCDCDCDCDCDCDCDCDCDCDCDCDCDCDCDCDCDCDCDCDCDCDCDCDCDCDCDCDCDCDCDCDC
310
00000000000000000000000000000000000000000000000000000000000000000000000000000000000000000000000000000000000000000000000000000000000000000000000000000000000000000000DCDCDCDC0000DC000000000000000000000000DC00DCDC00DC0000000000000000000000000000000000000000
310
0000DC00DCDCDCDC00DC0000DC0000DC0000000000000000DC000000000000DCDC00000000000000000000000000000000000000000000000000000000000000000000000000000000000000000000000000000000000000000000DCDC0000DCDCDCDCDCDCDC000000000000000000DCDC0000000000DCDC00000000000000
310
DCDC00000000000000000000000000000000000000000000000000000000000000000000000000000000000000000000000000000000000000000000000000000000000000000000000000000000000000000000DCDC00000000DC000000000000000000000000DC00DCDC00DC000000000000000000000000000000000000
310
000000DCDCDCDCDCDCDCDCDC00DC0000DCDC0000000000000000DC000000000000DCDC00000000000000000000000000000000000000000000000000000000000000000000000000000000000000000000000000000000000000000000DCDC0000DC000000000000000000000000000000DCDC000000000000000000000000
310
0000DCDC00000000000000000000000000000000000000000000000000000000000000000000000000000000000000000000000000000000000000000000000000000000000000000000000000000000000000000000DCDC0000000000000000000000000000000000DC00DCDC00DC00000000000000000000000000000000
310
0000000000DC00DCDCDCDCDCDCDCDC0000DC00DC0000000000000000DC000000000000DCDC00000000000000000000000000000000000000000000000000000000000000000000000000000000000000000000000000000000000000000000DCDC0000DCDCDCDCDCDCDCDCDCDCDCDCDCDCDCDCDCDCDCDCDCDCDCDCDCDCDCDC
310
DCDCDCDCDCDC000000000000000000000000000000000000000000000000000000000000000000000000000000000000000000000000DCDCDCDCDCDCDCDCDCDCDCDCDCDCDCDCDCDCDCDCDCDCDC0000000000000000000000DCDC0000000000000000000000000000000000000000DC00DC0000000000000000000000000000
310
000000000000DC0000DCDCDCDCDCDCDC0000DC0000DC0000000000000000DC000000000000DCDC00000000000000000000000000000000000000000000000000000000000000000000000000000000000000000000000000000000000000000000DCDC0000DCDCDCDCDCDCDCDCDCDC000000000000DCDC0000000000DCDC00
310
000000000000DCDC000000000000000000000000000000000000000000000000000000000000000000000000000000000000000000000000DCDCDCDCDCDCDCDCDCDCDCDCDCDCDCDCDCDCDCDCDCDCDC0000000000000000000000DCDC0000000000000000000000000000000000000000DC00DC000000000000000000000000
310
0000000000000000DC0000DCDCDCDCDCDCDC00DC0000DCDC0000000000000000DC000000000000DCDC00000000000000000000000000000000000000000000000000000000000000000000000000000000000000000000000000000000000000000000DCDC0000DCDCDCDCDCDCDCDCDCDC000000000000DCDC0000000000DC
310
DC00000000000000DCDC000000000000000000000000000000000000000000000000000000000000000000000000000000000000000000000000DCDCDCDCDCDCDCDCDCDCDCDCDCDCDC0000000000000000000000000000DCDCDCDCDCDCDC0000000000000000000000000000000000000000DC00DC00000000000000000000
310
000000000000000000DC00000000DCDCDCDC00DCDC0000DC00DC0000000000000000DC000000000000DCDC00000000000000000000000000000000000000000000000000000000000000000000000000000000000000000000000000000000000000000000DCDC0000DCDCDCDCDCDCDCDCDCDCDCDCDCDCDCDCDCDCDCDCDCDC
310
DCDCDCDCDCDCDCDCDCDCDCDC000000000000000000000000000000000000000000000000000000000000000000000000000000000000000000000000DCDCDCDCDCDCDCDCDCDCDCDCDCDC0000DCDCDCDCDCDCDCDCDCDCDCDCDC0000000000DCDC00000000000000000000000000000000000000DCDC00DC0000000000000000
310
0000000000000000000000DC000000000000000000DC0000DC0000DC0000000000000000DC000000000000DCDC00000000000000000000000000000000000000000000000000000000000000000000000000000000000000000000000000000000000000000000DCDC0000DCDCDCDCDCDCDCDCDCDCDCDCDCDCDCDCDCDCDCDC
310
DCDCDCDCDCDCDCDCDCDCDCDCDCDC00000000000000000000000000000000000000000000000000000000000000000000000000000000000000000000000000000000000000000000000000000000000000000000000000000000000000000000DCDC000000000000000000000000000000000000DC00DC00DC000000000000
310
000000000000000000000000DC00000000000000000000DC00DC0000DCDC0000000000000000DC000000000000DCDC00000000000000000000000000000000000000000000000000000000000000000000000000000000000000000000000000000000000000000000DCDC0000DCDCDCDCDCDCDCDCDCDCDCDCDCDC0000DCDC
310
DCDCDCDCDCDCDCDCDCDCDC000000DCDC0000000000000000000000000000000000000000000000000000000000000000000000000000000000000000000000000000000000000000000000000000000000000000000000000000000000000000DCDCDCDCDCDCDCDCDCDCDCDCDCDCDCDCDCDCDCDCDCDCDCDCDCDCDCDCDCDCDC
310
DCDCDCDCDCDCDCDCDCDCDCDCDCDCDCDCDCDCDCDCDC00DCDCDCDCDCDCDCDCDCDCDCDCDCDCDCDCDCDCDCDC0000000000DCDC00000000000000000000000000000000000000000000000000000000000000000000000000000000000000000000000000000000000000000000DCDC0000DCDCDCDCDCDCDCDCDCDCDCDCDCDCDCDC
310
DCDCDCDCDCDCDCDCDCDCDCDCDCDCDCDCDCDC000000000000000000000000000000000000000000000000000000000000000000000000000000000000000000000000000000000000000000000000000000000000000000000000000000000000000000000000000000000000DC000000000000000000DC0000DC0000000000
310
000000000000DC0000000000000000DC000000DC0000DC00000000DC0000DC0000DC000000000000000000000000000000DCDC00000000000000000000000000000000000000000000000000000000000000000000000000000000000000000000000000000000000000000000DCDC00000000000000000000000000DCDCDC
310
DCDCDCDCDCDCDCDC000000000000000000000000000000000000000000000000000000000000000000000000000000000000000000000000000000000000000000000000000000000000000000000000000000000000000000000000000000000000000000DCDCDCDCDCDCDCDCDCDCDCDCDCDCDCDCDCDCDCDCDCDCDCDCDCDC
310
DCDCDCDCDCDCDCDCDCDCDCDCDCDCDCDCDCDCDCDCDCDCDCDCDC00000000DC00DC0000DCDC000000000000000000000000000000DCDC00000000000000000000000000000000000000000000000000000000000000000000000000000000000000000000000000000000000000000000DCDC00000000000000000000000000DC
310
DCDCDCDCDCDCDCDCDCDC00000000000000000000000000000000000000000000000000000000000000000000000000000000000000000000000000000000000000000000000000000000000000000000000000000000000000000000000000000000000000000000000000000000DC00DCDCDC00000000DCDC00DC00DC00DC
310
DC00000000000000DC00DCDC00DC00000000DC0000DC00DCDCDC0000000000DCDC0000DC00DC000000000000000000000000000000DCDC00000000000000000000000000000000000000000000000000000000000000000000000000000000000000000000000000000000000000000000DCDC000000000000DCDCDCDCDCDC
310
DCDCDCDCDCDCDCDCDCDCDCDCDCDCDCDCDCDCDC0000000000000000000000000000000000000000000000000000000000000000000000000000000000000000000000000000000000000000000000000000000000000000000000000000000000000000000000000000000000000000DC00DC0000DCDC0000DC0000DC00DC00
310
0000DCDC0000000000DC00DC0000DC00DC000000DC00DC00DC0000DCDC00000000DC0000DC0000DC000000000000000000000000000000DCDC00000000000000000000000000000000000000000000000000000000000000000000000000000000000000000000000000000000000000000000DCDC000000000000DCDCDCDC
310
DCDCDCDCDCDCDCDCDCDCDCDCDCDCDCDCDCDCDCDCDC0000000000000000000000000000000000000000000000000000000000000000000000000000000000000000000000000000000000000000DCDCDCDCDCDCDCDCDCDCDCDCDCDCDCDCDCDCDC000000000000000000000000000000DCDCDCDC00000000DCDCDC0000DC00DC
310
0000000000DCDC0000DCDCDCDC00000000DC00DC00DCDCDCDCDC00000000DCDCDC0000DC00DC0000DCDC000000000000000000000000000000DCDC00000000000000000000000000000000000000000000000000000000000000000000000000000000000000000000000000000000000000000000DCDC0000000000000000
310
0000000000000000000000000000000000000000000000000000000000000000000000000000000000000000000000000000000000000000000000000000000000000000000000000000000000DCDCDCDCDCDCDCDCDCDCDCDCDCDCDCDCDCDCDCDCDCDCDCDCDCDCDC0000000000000000DC00DC00000000000000DCDC00DC00
310
DC00000000000000DCDCDC00DC00000000000000DC00DCDC00DC00000000000000DC00DC00DCDC0000DC00DC000000000000000000000000000000DCDC00000000000000000000000000000000000000000000000000000000000000000000000000000000000000000000000000000000000000000000DCDC000000000000
310
00000000000000000000000000000000000000000000000000000000000000000000000000000000000000000000000000000000000000000000000000000000000000000000000000000000000000DC00DCDCDCDCDCDCDCDCDCDCDCDCDCDCDCDCDCDCDCDCDCDCDCDCDC000000000000DCDCDCDCDCDCDCDCDCDCDCDCDCDCDC
310
DCDCDCDCDCDCDCDCDCDCDCDCDCDCDCDCDCDCDCDCDCDCDCDCDCDCDCDCDCDCDCDCDCDCDCDCDCDCDCDCDCDCDC0000DC000000000000000000000000000000DCDC00000000000000000000000000000000000000000000000000000000000000000000000000000000000000000000000000000000000000000000DCDC00000000
310
000000000000000000000000000000000000000000000000000000000000000000000000000000000000000000000000000000000000000000000000000000000000000000000000000000000000000000DCDCDC000000000000000000000000000000000000000000000000000000000000DCDCDCDCDCDCDCDCDCDCDCDCDC
310
DCDCDCDCDCDCDCDCDCDCDCDCDCDCDCDCDCDCDCDCDCDCDCDCDCDCDCDCDCDCDCDCDCDCDCDCDCDCDCDCDCDCDCDC0000DCDC000000000000000000000000000000DCDC00000000000000000000000000000000000000000000000000000000000000000000000000000000000000000000000000000000000000000000DCDC0000
310
0000000000000000000000000000000000000000000000000000000000000000000000000000000000000000000000000000000000000000000000000000000000000000000000000000000000000000000000000000DCDCDCDCDCDCDCDCDCDCDCDCDCDCDCDCDCDCDC0000000000000000000000000000000000000000DC00
310
000000000000000000000000000000000000000000000000000000DC000000000000000000000000000000DCDC0000DC00DC000000000000000000000000000000DCDC00000000000000000000000000000000000000000000000000000000000000000000000000000000000000000000000000000000000000000000DCDC
310
0000DCDCDCDCDCDCDCDCDCDCDCDCDCDCDCDCDCDCDCDCDCDCDCDCDCDCDCDCDCDCDC00000000000000000000000000000000000000000000000000000000000000000000000000000000000000000000000000000000000000DCDCDCDCDCDCDCDCDCDCDCDCDCDCDCDCDCDCDC00000000000000000000000000000000000000DC
310
0000000000000000000000000000000000000000000000000000000000DC000000000000000000000000000000DC0000DC0000DC000000000000000000000000000000DCDC00000000000000000000000000000000000000000000000000000000000000000000000000000000000000000000000000000000000000000000
310
DCDC0000DC00DCDCDCDCDCDCDCDCDCDCDCDCDCDCDCDCDCDCDCDCDCDCDCDCDCDCDCDCDC00000000000000000000000000000000000000000000000000000000000000000000000000000000000000000000000000000000DCDCDCDCDCDCDCDCDCDCDCDCDCDCDCDCDCDCDCDCDCDCDCDCDCDC0000000000000000000000000000
310
DC0000000000000000000000000000000000000000000000000000000000DC00000000000000000000000000000000DC00DC0000DCDC000000000000000000000000000000DCDC0000000000000000000000000000000000000000000000000000000000000000000000000000000000000000000000000000000000000000
310
0000DCDC0000DCDCDC0000000000000000000000000000000000000000000000000000000000000000000000000000000000000000000000000000000000000000000000000000000000000000000000000000000000000000DCDCDCDCDCDCDCDCDCDCDCDCDCDCDCDCDCDCDCDCDCDCDCDCDCDC000000000000000000000000
310
00DC000000000000000000000000000000000000000000000000000000000000DC00000000000000000000000000000000DCDC0000DC00DC000000000000000000000000000000DCDC000000000000000000000000000000000000000000000000000000000000000000000000000000000000000000000000000000000000
310
00000000DCDC0000DCDCDCDCDCDCDCDCDCDCDCDCDCDCDCDCDCDCDCDCDCDCDCDCDCDCDCDCDCDCDCDCDCDCDCDCDCDCDCDCDCDCDCDCDCDCDCDC0000000000000000000000000000000000000000000000000000000000000000000000000000000000000000000000000000000000000000000000000000000000000000000000
310
00DCDC000000000000000000000000000000000000000000000000000000000000DC0000000000000000000000000000000000DC0000DC0000DC000000000000000000000000000000DCDC00000000000000000000000000000000000000000000000000000000000000000000000000000000000000000000000000000000
310
000000000000DCDC0000DC00DCDCDCDCDCDCDCDCDCDCDCDCDCDCDCDCDCDCDCDCDCDCDCDCDCDCDCDCDCDCDCDCDCDCDCDCDCDCDCDCDCDCDCDCDCDC00000000000000000000000000000000000000000000000000000000000000000000DCDCDCDCDCDCDCDCDCDCDCDCDCDCDCDCDCDCDCDCDCDCDCDCDCDCDCDCDCDCDCDC000000
310
0000DC0000000000000000DCDCDCDCDCDCDCDCDCDC0000000000000000000000000000DC000000000000000000000000000000000000000000000000000000000000000000000000000000DCDC0000000000000000000000000000000000000000000000000000000000000000000000000000000000000000000000000000
310
0000000000F50000DCDC0000DCDCDC00000000000000000000000000000000000000000000000000000000000000000000000000000000000000000000000000000000000000000000000000000000000000000000000000000000000000DCDCDCDCDCDCDCDCDCDCDCDCDCDCDCDCDCDCDCDCDCDCDCDCDCDCDCDCDCDCDC0000
310
000000DC000000000000000000DCDCDCDCDCDCDCDCDCDC00000000000000000000000000DC00000000000000000000000000000000000000000000000000000000000000000000000000000000DCDC0000F5000000000000000000000000000000000000000000000000000000000000000000000000000000000000000000
310
00000000000000F50000DCDC000000DCDCDCDCDCDCDCDCDCDCDCDCDCDCDCDCDCDCDCDCDCDCDCDCDCDCDCDCDCDCDCDCDC00000000000000000000000000000000000000000000000000000000000000000000000000000000000000000000000000000000000000000000000000000000000000000000000000000000000000
310
00000000DC00000000000000000000DCDCDCDCDCDCDCDCDCDCDCDCDCDCDCDCDCDCDCDC000000DC00000000000000000000000000000000000000000000000000000000000000000000000000000000DCDC0000F500000000000000000000000000000000000000000000000000000000000000000000000000000000000000
310
000000000000000000F50000DCDC000000DCDCDCDCDCDCDCDCDCDCDCDCDCDCDCDCDCDCDCDCDCDCDCDCDCDCDCDCDCDCDCDC00000000000000000000000000000000000000000000000000000000000000000000000000000000000000000000000000DCDCDCDCDCDCDCDCDCDCDCDCDCDCDCDCDCDCDCDCDCDCDCDCDCDC000000
310
0000000000DC0000000000000000000000DCDCDCDCDCDCDCDCDCDCDCDCDCDCDCDCDCDCDC00DCDCDC0000000000000000000000000000000000000000000000000000000000000000000000000000000000DCDC0000F50000000000000000000000000000000000000000000000000000000000000000000000000000000000
310
0000000000000000000000F50000DCDC000000DCDCDCDCDCDCDCDCDCDCDCDCDCDCDCDCDCDCDCDCDCDCDCDCDCDCDCDCDCDCDCDC00000000000000000000000000000000000000000000000000000000000000000000000000000000000000000000000000DCDCDCDCDCDCDCDCDCDCDCDCDCDCDCDCDCDCDCDCDCDCDCDCDCDC00
310
DCDCDCDCDCDCDC00000000000000000000000000000000000000000000000000000000000000000000000000000000000000000000000000000000000000000000000000000000000000000000000000000000DCDC0000F5000000000000000000000000000000000000000000000000000000000000000000000000000000
310
00000000000000000000000000F50000DCDC000000DCDCDCDCDCDCDCDCDCDCDCDCDCDCDCDCDCDCDCDCDCDCDCDCDCDCDCDCDCDCDCDC0000000000000000000000000000000000000000000000000000000000000000000000000000000000000000000000000000000000000000000000000000000000000000000000000000
310
00000000000000000000000000000000000000000000000000000000000000000000000000000000000000000000000000000000000000000000000000000000000000000000000000000000000000000000000000DCDC0000F500000000000000000000000000000000000000000000000000000000000000000000000000
310
000000000000000000000000000000F50000DCDC0000000000000000000000000000000000000000000000000000000000000000000000000000000000000000000000000000000000000000000000000000000000000000000000000000000000000000000000000000000000000000000000000000000000000000000000
310
000000000000000000000000000000000000000000000000000000000000000000000000000000000000000000000000000000000000000000000000000000000000000000000000000000000000000000000000000000DCDC0000F50000000000000000000000000000000000000000000000000000000000000000000000
310
0000000000000000000000000000000000F50000DCDCDCDCDCDCDCDCDCDCDCDCDCDCDCDCDCDCDCDCDCDCDCDCDCDCDCDCDCDCDCDCDCDCDCDCDCDCDCDCDCDCDCDCDCDCDCDCDCDCDCDCDCDCDCDCDCDCDCDCDCDCDCDCDCDCDCDCDCDCDCDCDCDCDCDCDCDCDCDCDCDCDCDCDCDCDCDCDCDCDCDCDCDCDCDCDCDCDCDCDCDCDCDCDCDCDC
310
DCDCDCDCDCDCDCDCDCDCDCDCDCDCDCDCDCDCDCDCDCDCDCDCDCDCDCDCDCDCDCDCDCDCDCDCDCDCDCDCDCDCDCDCDCDCDCDCDCDCDCDCDCDCDCDCDCDCDCDCDCDCDCDCDCDCDCDCDCDCDCDCDCDCDCDCDCDCDCDCDCDCDCDCDCDCDCDCDCDCDC0000F5000000000000000000000000000000000000000000000000000000000000000000
310
00000000000000000000000000000000000000F50000000000000000000000000000000000000000000000000000000000000000000000000000000000000000000000000000000000000000000000000000000000000000000000000000000000000000000000000000000000000000000000000000000000000000000000
310
0000000000000000000000000000000000000000000000000000000000000000000000000000000000000000000000000000000000000000000000000000000000000000000000000000000000000000000000000000000000000000000000F500000000000000000000000000000000000000000000000000000000000000
310
000000000000000000000000000000000000000000F5000000000000000000000000000000000000000000000000000000000000000000000000000000000000000000000000000000000000000000000000000000000000000000000000000000000000000000000000000000000000000000000000000000000000000000
310
00000000000000000000000000000000000000000000000000000000000000000000000000000000000000000000000000000000000000000000000000000000000000000000000000000000000000000000000000000000000000000000000000F50000000000000000000000000000000000000000000000000000000000
310
0000000000000000000000000000F5F5F5F5F5F5F5F5F5F5F5F5F5F5F500F5F5F5F5000000000000000000000000000000000000000000000000000000000000000000000000000000000000000000000000000000000000000000000000000000000000000000000000000000000000000000000000000000000000000000
310
0000000000000000000000000000000000000000000000000000000000000000000000000000000000000000000000000000000000000000000000000000000000000000000000000000000000000000000000000000000000F5F5F5F500F5F5F5F5F5F5F5F5F5F5F5F5F5F5F5000000000000000000000000000000000000
310
00000000000000000000000000000000000000000000000000F50000000000000000000000000000000000000000000000000000000000000000000000000000000000000000000000000000000000000000000000000000000000000000000000000000000000000000000000000000000000000000000000000000000000
310
0000000000000000000000000000000000000000000000000000000000000000000000000000000000000000000000000000000000000000000000000000000000000000000000000000000000000000000000000000000000000000000000000000000000F500000000000000000000000000000000000000000000000000
310
000000000000000000000000000000000000000000000000000000F5000000000000000000000000000000000000000000000000000000000000000000000000000000000000000000000000000000000000000000000000000000000000000000000000000000000000000000000000000000000000000000000000000000
310
00000000000000000000000000000000000000000000000000000000000000000000000000000000000000000000000000000000000000000000000000000000000000000000000000000000000000000000000000000000000000000000000000000000000000F50000000000000000000000000000000000000000000000
310
0000000000000000000000000000000000000000000000000000000000F500000000000000000000000000000000000000000000000000000000000000000000000000000000000000000000000000000000000000000000000000000000000000000000000000000000000000000000000000000000000000000000000000
310
000000000000000000000000000000000000000000000000000000000000000000000000000000000000000000000000000000000000000000000000000000000000000000000000000000000000000000000000000000000000000000000000000000000000000000F5000000000000000000000000000000000000000000
310
00000000000000000000000000000000000000000000000000000000000000F50000000000000000000000000000000000000000000000000000000000000000000000000000000000000000000000000000000000000000000000000000000000000000000000000000000000000000000000000000000000000000000000
310
0000000000000000000000000000000000000000000000000000000000000000000000000000000000000000000000000000000000000000000000000000000000000000000000000000000000000000000000000000000000000000000000000000000000000000000000F500000000000000000000000000000000000000
310
000000000000000000000000000000000000000000000000000000000000000000F5000000000000000000000000000000000000000000000000000000000000000000000000000000000000000000000000000000000000000000000000000000000000000000000000000000000000000000000000000000000000000000
310
00000000000000000000000000000000000000000000000000000000000000000000000000000000000000000000000000000000000000000000000000000000000000000000000000000000000000000000000000000000000000000000000000000000000000000000000000F50000000000000000000000000000000000
310
00000000000000000000000000000000000000000000000000000000000000000000000000000000000000000000000000000000000000000000000000000000000000000000000000000000000000000000000000000000000000000000000000000000000000000000000000000000000000000000000000000000000000
310
00000000000000000000000000000000000000000000000000000000000000000000000000000000000000000000000000000000000000000000000000000000000000000000000000000000000000000000000000000000000000000000000000000000000000000000000000000000000000000000000000000000000000
310
00000000000000000000000000000000000000000000000000000000000000000000000000F50000000000000000000000000000000000000000000000000000000000000000000000000000000000000000000000000000000000000000000000000000000000000000000000000000000000000000000000000000000000
310
0000000000000000000000000000000000000000000000000000000000000000000000000000000000000000000000000000000000000000000000000000000000000000000000000000000000000000000000000000000000000000000000000000000000000000000000000000000000F500000000000000000000000000
310
000000000000000000000000000000000000000000000000000000000000000000000000000000F5000000000000000000000000000000000000000000000000000000000000000000000000000000000000000000000000000000000000000000000000000000000000000000000000000000000000000000000000000000
310
00000000000000000000000000000000000000000000000000000000000000000000000000000000000000000000000000000000000000000000000000000000000000000000000000000000000000000000000000000000000000000000000000000000000000000000000000000000000000F50000000000000000000000
310
0000000000000000000000000000000000000000000000000000000000000000000000000000000000F500000000000000000000000000000000000000000000000000000000000000000000000000000000000000000000000000000000000000000000000000000000000000000000000000000000000000000000000000
310
000000000000000000000000000000000000000000000000000000000000000000000000000000000000000000000000000000000000000000000000000000000000000000000000000000000000000000000000000000000000000000000000000000000000000000000000000000000000000000F5000000000000000000
310
00000000000000000000000000000000000000000000000000000000000000000000000000000000000000000000000000000000000000000000000000000000000000000000000000000000000000000000000000000000000000000000000000000000000000000000000000000000000000000000000000000000000000
310
00000000000000000000000000000000000000000000000000000000000000000000000000000000000000000000000000000000000000000000000000000000000000000000000000000000000000000000000000000000000000000000000000000000000000000000000000000000000000000000000000000000000000
310
00000000000000000000000000000000000000
  0
XRECORD
  5
694
102
{ACAD_REACTORS
330
692
102
}
330
692
100
AcDbXrecord
280
     1
270
     1
271
     1
  0
XRECORD
  5
693
102
{ACAD_REACTORS
330
692
102
}
330
692
100
AcDbXrecord
280
     1
270
     1
271
     1
  0
XRECORD
  5
697
102
{ACAD_REACTORS
330
692
102
}
330
692
100
AcDbXrecord
280
     1
270
     1
271
     1
  0
XRECORD
  5
696
102
{ACAD_REACTORS
330
692
102
}
330
692
100
AcDbXrecord
280
     1
270
     1
271
     1
  0
XRECORD
  5
698
102
{ACAD_REACTORS
330
692
102
}
330
692
100
AcDbXrecord
280
     1
270
     1
271
     1
  0
XRECORD
  5
695
102
{ACAD_REACTORS
330
692
102
}
330
692
100
AcDbXrecord
280
     1
270
     1
271
     1
  0
XRECORD
  5
68C
102
{ACAD_REACTORS
330
68A
102
}
330
68A
100
AcDbXrecord
280
     1
270
     1
271
     1
  0
XRECORD
  5
68B
102
{ACAD_REACTORS
330
68A
102
}
330
68A
100
AcDbXrecord
280
     1
270
     1
271
     1
  0
XRECORD
  5
68F
102
{ACAD_REACTORS
330
68A
102
}
330
68A
100
AcDbXrecord
280
     1
270
     1
271
     1
  0
XRECORD
  5
68E
102
{ACAD_REACTORS
330
68A
102
}
330
68A
100
AcDbXrecord
280
     1
270
     1
271
     1
  0
XRECORD
  5
690
102
{ACAD_REACTORS
330
68A
102
}
330
68A
100
AcDbXrecord
280
     1
270
     1
271
     1
  0
XRECORD
  5
68D
102
{ACAD_REACTORS
330
68A
102
}
330
68A
100
AcDbXrecord
280
     1
270
     1
271
     1
  0
XRECORD
  5
69C
102
{ACAD_REACTORS
330
69A
102
}
330
69A
100
AcDbXrecord
280
     1
270
     1
271
     1
  0
XRECORD
  5
69B
102
{ACAD_REACTORS
330
69A
102
}
330
69A
100
AcDbXrecord
280
     1
270
     1
271
     1
  0
XRECORD
  5
69F
102
{ACAD_REACTORS
330
69A
102
}
330
69A
100
AcDbXrecord
280
     1
270
     1
271
     1
  0
XRECORD
  5
69E
102
{ACAD_REACTORS
330
69A
102
}
330
69A
100
AcDbXrecord
280
     1
270
     1
271
     1
  0
XRECORD
  5
6A0
102
{ACAD_REACTORS
330
69A
102
}
330
69A
100
AcDbXrecord
280
     1
270
     1
271
     1
  0
XRECORD
  5
69D
102
{ACAD_REACTORS
330
69A
102
}
330
69A
100
AcDbXrecord
280
     1
270
     1
271
     1
  0
CELLSTYLEMAP
  5
749
102
{ACAD_REACTORS
330
748
102
}
330
748
100
AcDbCellStyleMap
 90
        3
300
CELLSTYLE
  1
TABLEFORMAT_BEGIN
 90
        5
170
     1
 91
        0
 92
    32768
 62
   257
 93
        1
300
CONTENTFORMAT
  1
CONTENTFORMAT_BEGIN
 90
        0
 91
        0
 92
      512
 93
        0
300

 40
0.0
140
1.0
 94
        5
 62
     0
340
F
144
0.25
309
CONTENTFORMAT_END
171
     0
 94
        0
309
TABLEFORMAT_END
  1
CELLSTYLE_BEGIN
 90
        1
 91
        1
300
_TITLE
309
CELLSTYLE_END
300
CELLSTYLE
  1
TABLEFORMAT_BEGIN
 90
        5
170
     1
 91
        0
 92
        0
 62
   257
 93
        1
300
CONTENTFORMAT
  1
CONTENTFORMAT_BEGIN
 90
        0
 91
        0
 92
      512
 93
        0
300

 40
0.0
140
1.0
 94
        5
 62
     0
340
F
144
0.18
309
CONTENTFORMAT_END
171
     0
 94
        0
309
TABLEFORMAT_END
  1
CELLSTYLE_BEGIN
 90
        2
 91
        1
300
_HEADER
309
CELLSTYLE_END
300
CELLSTYLE
  1
TABLEFORMAT_BEGIN
 90
        5
170
     1
 91
        0
 92
        0
 62
   257
 93
        1
300
CONTENTFORMAT
  1
CONTENTFORMAT_BEGIN
 90
        0
 91
        0
 92
      512
 93
        0
300

 40
0.0
140
1.0
 94
        2
 62
     0
340
F
144
0.18
309
CONTENTFORMAT_END
171
     0
 94
        0
309
TABLEFORMAT_END
  1
CELLSTYLE_BEGIN
 90
        3
 91
        2
300
_DATA
309
CELLSTYLE_END
  0
XRECORD
  5
756
102
{ACAD_REACTORS
330
755
102
}
330
755
100
AcDbXrecord
280
     1
102
RTVSPropertyOp0
 70
     1
102
RTVSPropertyOp1
 70
     1
102
RTVSPropertyOp2
 70
     1
102
RTVSPropertyOp3
 70
     1
102
RTVSPropertyOp4
 70
     1
102
RTVSPropertyOp5
 70
     1
102
RTVSPropertyOp6
 70
     1
102
RTVSPropertyOp7
 70
     1
102
RTVSPropertyOp8
 70
     1
102
RTVSPropertyOp9
 70
     1
102
RTVSPropertyOp10
 70
     1
102
RTVSPropertyOp11
 70
     1
102
RTVSPropertyOp12
 70
     1
102
RTVSPropertyOp13
 70
     1
102
RTVSPropertyOp14
 70
     1
102
RTVSPropertyOp15
 70
     1
102
RTVSPropertyOp16
 70
     1
102
RTVSPropertyOp17
 70
     1
102
RTVSPropertyOp18
 70
     1
102
RTVSPropertyOp19
 70
     1
102
RTVSPropertyOp20
 70
     1
102
RTVSPropertyOp21
 70
     1
102
RTVSPropertyOp22
 70
     1
102
RTVSPropertyOp23
 70
     1
102
RTVSPropertyOp24
 70
     1
102
RTVSPropertyOp25
 70
     1
102
RTVSPropertyOp26
 70
     1
102
RTVSPropertyOp27
 70
     1
102
RTVSPropertyOp28
 70
     1
102
RTVSPropertyOp29
 70
     1
102
RTVSPropertyOp30
 70
     1
102
RTVSPropertyOp31
 70
     1
102
RTVSPropertyOp32
 70
     1
  0
XRECORD
  5
754
102
{ACAD_REACTORS
330
753
102
}
330
753
100
AcDbXrecord
280
     1
102
RTVSPropertyOp0
 70
     1
102
RTVSPropertyOp1
 70
     1
102
RTVSPropertyOp2
 70
     1
102
RTVSPropertyOp3
 70
     1
102
RTVSPropertyOp4
 70
     1
102
RTVSPropertyOp5
 70
     1
102
RTVSPropertyOp6
 70
     1
102
RTVSPropertyOp7
 70
     1
102
RTVSPropertyOp8
 70
     1
102
RTVSPropertyOp9
 70
     1
102
RTVSPropertyOp10
 70
     1
102
RTVSPropertyOp11
 70
     1
102
RTVSPropertyOp12
 70
     1
102
RTVSPropertyOp13
 70
     1
102
RTVSPropertyOp14
 70
     1
102
RTVSPropertyOp15
 70
     1
102
RTVSPropertyOp16
 70
     1
102
RTVSPropertyOp17
 70
     1
102
RTVSPropertyOp18
 70
     1
102
RTVSPropertyOp19
 70
     1
102
RTVSPropertyOp20
 70
     1
102
RTVSPropertyOp21
 70
     1
102
RTVSPropertyOp22
 70
     1
102
RTVSPropertyOp23
 70
     1
102
RTVSPropertyOp24
 70
     1
102
RTVSPropertyOp25
 70
     1
102
RTVSPropertyOp26
 70
     1
102
RTVSPropertyOp27
 70
     1
102
RTVSPropertyOp28
 70
     1
102
RTVSPropertyOp29
 70
     1
102
RTVSPropertyOp30
 70
     1
102
RTVSPropertyOp31
 70
     1
102
RTVSPropertyOp32
 70
     1
  0
XRECORD
  5
762
102
{ACAD_REACTORS
330
761
102
}
330
761
100
AcDbXrecord
280
     1
102
RTVSPropertyOp0
 70
     1
102
RTVSPropertyOp1
 70
     1
102
RTVSPropertyOp2
 70
     1
102
RTVSPropertyOp3
 70
     1
102
RTVSPropertyOp4
 70
     1
102
RTVSPropertyOp5
 70
     1
102
RTVSPropertyOp6
 70
     1
102
RTVSPropertyOp7
 70
     1
102
RTVSPropertyOp8
 70
     1
102
RTVSPropertyOp9
 70
     1
102
RTVSPropertyOp10
 70
     1
102
RTVSPropertyOp11
 70
     1
102
RTVSPropertyOp12
 70
     1
102
RTVSPropertyOp13
 70
     1
102
RTVSPropertyOp14
 70
     1
102
RTVSPropertyOp15
 70
     1
102
RTVSPropertyOp16
 70
     1
102
RTVSPropertyOp17
 70
     1
102
RTVSPropertyOp18
 70
     1
102
RTVSPropertyOp19
 70
     1
102
RTVSPropertyOp20
 70
     1
102
RTVSPropertyOp21
 70
     1
102
RTVSPropertyOp22
 70
     1
102
RTVSPropertyOp23
 70
     1
102
RTVSPropertyOp24
 70
     1
102
RTVSPropertyOp25
 70
     1
102
RTVSPropertyOp26
 70
     1
102
RTVSPropertyOp27
 70
     1
102
RTVSPropertyOp28
 70
     1
102
RTVSPropertyOp29
 70
     1
102
RTVSPropertyOp30
 70
     1
102
RTVSPropertyOp31
 70
     1
102
RTVSPropertyOp32
 70
     1
  0
XRECORD
  5
76A
102
{ACAD_REACTORS
330
769
102
}
330
769
100
AcDbXrecord
280
     1
102
RTVSPropertyOp0
 70
     1
102
RTVSPropertyOp1
 70
     1
102
RTVSPropertyOp2
 70
     1
102
RTVSPropertyOp3
 70
     1
102
RTVSPropertyOp4
 70
     1
102
RTVSPropertyOp5
 70
     1
102
RTVSPropertyOp6
 70
     1
102
RTVSPropertyOp7
 70
     1
102
RTVSPropertyOp8
 70
     1
102
RTVSPropertyOp9
 70
     1
102
RTVSPropertyOp10
 70
     1
102
RTVSPropertyOp11
 70
     1
102
RTVSPropertyOp12
 70
     1
102
RTVSPropertyOp13
 70
     1
102
RTVSPropertyOp14
 70
     1
102
RTVSPropertyOp15
 70
     1
102
RTVSPropertyOp16
 70
     1
102
RTVSPropertyOp17
 70
     1
102
RTVSPropertyOp18
 70
     1
102
RTVSPropertyOp19
 70
     1
102
RTVSPropertyOp20
 70
     1
102
RTVSPropertyOp21
 70
     1
102
RTVSPropertyOp22
 70
     1
102
RTVSPropertyOp23
 70
     1
102
RTVSPropertyOp24
 70
     1
102
RTVSPropertyOp25
 70
     1
102
RTVSPropertyOp26
 70
     1
102
RTVSPropertyOp27
 70
     1
102
RTVSPropertyOp28
 70
     1
102
RTVSPropertyOp29
 70
     1
102
RTVSPropertyOp30
 70
     1
102
RTVSPropertyOp31
 70
     1
102
RTVSPropertyOp32
 70
     1
  0
XRECORD
  5
75C
102
{ACAD_REACTORS
330
75B
102
}
330
75B
100
AcDbXrecord
280
     1
102
RTVSPropertyOp0
 70
     1
102
RTVSPropertyOp1
 70
     1
102
RTVSPropertyOp2
 70
     1
102
RTVSPropertyOp3
 70
     1
102
RTVSPropertyOp4
 70
     1
102
RTVSPropertyOp5
 70
     1
102
RTVSPropertyOp6
 70
     1
102
RTVSPropertyOp7
 70
     1
102
RTVSPropertyOp8
 70
     1
102
RTVSPropertyOp9
 70
     1
102
RTVSPropertyOp10
 70
     1
102
RTVSPropertyOp11
 70
     1
102
RTVSPropertyOp12
 70
     1
102
RTVSPropertyOp13
 70
     1
102
RTVSPropertyOp14
 70
     1
102
RTVSPropertyOp15
 70
     1
102
RTVSPropertyOp16
 70
     1
102
RTVSPropertyOp17
 70
     1
102
RTVSPropertyOp18
 70
     1
102
RTVSPropertyOp19
 70
     1
102
RTVSPropertyOp20
 70
     1
102
RTVSPropertyOp21
 70
     1
102
RTVSPropertyOp22
 70
     1
102
RTVSPropertyOp23
 70
     1
102
RTVSPropertyOp24
 70
     1
102
RTVSPropertyOp25
 70
     1
102
RTVSPropertyOp26
 70
     1
102
RTVSPropertyOp27
 70
     1
102
RTVSPropertyOp28
 70
     1
102
RTVSPropertyOp29
 70
     1
102
RTVSPropertyOp30
 70
     1
102
RTVSPropertyOp31
 70
     1
102
RTVSPropertyOp32
 70
     1
  0
XRECORD
  5
760
102
{ACAD_REACTORS
330
75F
102
}
330
75F
100
AcDbXrecord
280
     1
102
RTVSPropertyOp0
 70
     1
102
RTVSPropertyOp1
 70
     1
102
RTVSPropertyOp2
 70
     1
102
RTVSPropertyOp3
 70
     1
102
RTVSPropertyOp4
 70
     1
102
RTVSPropertyOp5
 70
     1
102
RTVSPropertyOp6
 70
     1
102
RTVSPropertyOp7
 70
     1
102
RTVSPropertyOp8
 70
     1
102
RTVSPropertyOp9
 70
     1
102
RTVSPropertyOp10
 70
     1
102
RTVSPropertyOp11
 70
     1
102
RTVSPropertyOp12
 70
     1
102
RTVSPropertyOp13
 70
     1
102
RTVSPropertyOp14
 70
     1
102
RTVSPropertyOp15
 70
     1
102
RTVSPropertyOp16
 70
     1
102
RTVSPropertyOp17
 70
     1
102
RTVSPropertyOp18
 70
     1
102
RTVSPropertyOp19
 70
     1
102
RTVSPropertyOp20
 70
     1
102
RTVSPropertyOp21
 70
     1
102
RTVSPropertyOp22
 70
     1
102
RTVSPropertyOp23
 70
     1
102
RTVSPropertyOp24
 70
     1
102
RTVSPropertyOp25
 70
     1
102
RTVSPropertyOp26
 70
     1
102
RTVSPropertyOp27
 70
     1
102
RTVSPropertyOp28
 70
     1
102
RTVSPropertyOp29
 70
     1
102
RTVSPropertyOp30
 70
     1
102
RTVSPropertyOp31
 70
     1
102
RTVSPropertyOp32
 70
     1
  0
XRECORD
  5
77A
102
{ACAD_REACTORS
330
779
102
}
330
779
100
AcDbXrecord
280
     1
102
RTVSPropertyOp0
 70
     0
102
RTVSPropertyOp1
 70
     0
102
RTVSPropertyOp2
 70
     0
102
RTVSPropertyOp3
 70
     0
102
RTVSPropertyOp4
 70
     0
102
RTVSPropertyOp5
 70
     0
102
RTVSPropertyOp6
 70
     0
102
RTVSPropertyOp7
 70
     0
102
RTVSPropertyOp8
 70
     0
102
RTVSPropertyOp9
 70
     0
102
RTVSPropertyOp10
 70
     0
102
RTVSPropertyOp11
 70
     0
102
RTVSPropertyOp12
 70
     0
102
RTVSPropertyOp13
 70
     0
102
RTVSPropertyOp14
 70
     2
102
RTVSPropertyOp15
 70
     0
102
RTVSPropertyOp16
 70
     0
102
RTVSPropertyOp17
 70
     0
102
RTVSPropertyOp18
 70
     0
102
RTVSPropertyOp19
 70
     0
102
RTVSPropertyOp20
 70
     0
102
RTVSPropertyOp21
 70
     0
102
RTVSPropertyOp22
 70
     0
102
RTVSPropertyOp23
 70
     0
102
RTVSPropertyOp24
 70
     0
102
RTVSPropertyOp25
 70
     0
102
RTVSPropertyOp26
 70
     0
102
RTVSPropertyOp27
 70
     0
102
RTVSPropertyOp28
 70
     0
102
RTVSPropertyOp29
 70
     0
102
RTVSPropertyOp30
 70
     0
102
RTVSPropertyOp31
 70
     0
102
RTVSPropertyOp32
 70
     0
  0
XRECORD
  5
768
102
{ACAD_REACTORS
330
767
102
}
330
767
100
AcDbXrecord
280
     1
102
RTVSPropertyOp0
 70
     1
102
RTVSPropertyOp1
 70
     1
102
RTVSPropertyOp2
 70
     1
102
RTVSPropertyOp3
 70
     1
102
RTVSPropertyOp4
 70
     1
102
RTVSPropertyOp5
 70
     1
102
RTVSPropertyOp6
 70
     1
102
RTVSPropertyOp7
 70
     1
102
RTVSPropertyOp8
 70
     1
102
RTVSPropertyOp9
 70
     1
102
RTVSPropertyOp10
 70
     1
102
RTVSPropertyOp11
 70
     1
102
RTVSPropertyOp12
 70
     1
102
RTVSPropertyOp13
 70
     1
102
RTVSPropertyOp14
 70
     1
102
RTVSPropertyOp15
 70
     1
102
RTVSPropertyOp16
 70
     1
102
RTVSPropertyOp17
 70
     1
102
RTVSPropertyOp18
 70
     1
102
RTVSPropertyOp19
 70
     1
102
RTVSPropertyOp20
 70
     1
102
RTVSPropertyOp21
 70
     1
102
RTVSPropertyOp22
 70
     1
102
RTVSPropertyOp23
 70
     1
102
RTVSPropertyOp24
 70
     1
102
RTVSPropertyOp25
 70
     1
102
RTVSPropertyOp26
 70
     1
102
RTVSPropertyOp27
 70
     1
102
RTVSPropertyOp28
 70
     1
102
RTVSPropertyOp29
 70
     1
102
RTVSPropertyOp30
 70
     1
102
RTVSPropertyOp31
 70
     1
102
RTVSPropertyOp32
 70
     1
  0
XRECORD
  5
74C
102
{ACAD_REACTORS
330
74B
102
}
330
74B
100
AcDbXrecord
280
     1
102
RTVSPropertyOp0
 70
     1
102
RTVSPropertyOp1
 70
     1
102
RTVSPropertyOp2
 70
     1
102
RTVSPropertyOp3
 70
     1
102
RTVSPropertyOp4
 70
     1
102
RTVSPropertyOp5
 70
     1
102
RTVSPropertyOp6
 70
     1
102
RTVSPropertyOp7
 70
     1
102
RTVSPropertyOp8
 70
     1
102
RTVSPropertyOp9
 70
     1
102
RTVSPropertyOp10
 70
     1
102
RTVSPropertyOp11
 70
     1
102
RTVSPropertyOp12
 70
     1
102
RTVSPropertyOp13
 70
     1
102
RTVSPropertyOp14
 70
     1
102
RTVSPropertyOp15
 70
     1
102
RTVSPropertyOp16
 70
     1
102
RTVSPropertyOp17
 70
     1
102
RTVSPropertyOp18
 70
     1
102
RTVSPropertyOp19
 70
     1
102
RTVSPropertyOp20
 70
     1
102
RTVSPropertyOp21
 70
     1
102
RTVSPropertyOp22
 70
     1
102
RTVSPropertyOp23
 70
     1
102
RTVSPropertyOp24
 70
     1
102
RTVSPropertyOp25
 70
     1
102
RTVSPropertyOp26
 70
     1
102
RTVSPropertyOp27
 70
     1
102
RTVSPropertyOp28
 70
     1
102
RTVSPropertyOp29
 70
     1
102
RTVSPropertyOp30
 70
     1
102
RTVSPropertyOp31
 70
     1
102
RTVSPropertyOp32
 70
     1
  0
XRECORD
  5
74E
102
{ACAD_REACTORS
330
74D
102
}
330
74D
100
AcDbXrecord
280
     1
102
RTVSPropertyOp0
 70
     1
102
RTVSPropertyOp1
 70
     1
102
RTVSPropertyOp2
 70
     1
102
RTVSPropertyOp3
 70
     1
102
RTVSPropertyOp4
 70
     1
102
RTVSPropertyOp5
 70
     1
102
RTVSPropertyOp6
 70
     1
102
RTVSPropertyOp7
 70
     1
102
RTVSPropertyOp8
 70
     1
102
RTVSPropertyOp9
 70
     1
102
RTVSPropertyOp10
 70
     1
102
RTVSPropertyOp11
 70
     1
102
RTVSPropertyOp12
 70
     1
102
RTVSPropertyOp13
 70
     1
102
RTVSPropertyOp14
 70
     1
102
RTVSPropertyOp15
 70
     1
102
RTVSPropertyOp16
 70
     1
102
RTVSPropertyOp17
 70
     1
102
RTVSPropertyOp18
 70
     1
102
RTVSPropertyOp19
 70
     1
102
RTVSPropertyOp20
 70
     1
102
RTVSPropertyOp21
 70
     1
102
RTVSPropertyOp22
 70
     1
102
RTVSPropertyOp23
 70
     1
102
RTVSPropertyOp24
 70
     1
102
RTVSPropertyOp25
 70
     1
102
RTVSPropertyOp26
 70
     1
102
RTVSPropertyOp27
 70
     1
102
RTVSPropertyOp28
 70
     1
102
RTVSPropertyOp29
 70
     1
102
RTVSPropertyOp30
 70
     1
102
RTVSPropertyOp31
 70
     1
102
RTVSPropertyOp32
 70
     1
  0
XRECORD
  5
750
102
{ACAD_REACTORS
330
74F
102
}
330
74F
100
AcDbXrecord
280
     1
102
RTVSPropertyOp0
 70
     1
102
RTVSPropertyOp1
 70
     1
102
RTVSPropertyOp2
 70
     1
102
RTVSPropertyOp3
 70
     1
102
RTVSPropertyOp4
 70
     1
102
RTVSPropertyOp5
 70
     1
102
RTVSPropertyOp6
 70
     1
102
RTVSPropertyOp7
 70
     1
102
RTVSPropertyOp8
 70
     1
102
RTVSPropertyOp9
 70
     1
102
RTVSPropertyOp10
 70
     1
102
RTVSPropertyOp11
 70
     1
102
RTVSPropertyOp12
 70
     1
102
RTVSPropertyOp13
 70
     1
102
RTVSPropertyOp14
 70
     1
102
RTVSPropertyOp15
 70
     1
102
RTVSPropertyOp16
 70
     1
102
RTVSPropertyOp17
 70
     1
102
RTVSPropertyOp18
 70
     1
102
RTVSPropertyOp19
 70
     1
102
RTVSPropertyOp20
 70
     1
102
RTVSPropertyOp21
 70
     1
102
RTVSPropertyOp22
 70
     1
102
RTVSPropertyOp23
 70
     1
102
RTVSPropertyOp24
 70
     1
102
RTVSPropertyOp25
 70
     1
102
RTVSPropertyOp26
 70
     1
102
RTVSPropertyOp27
 70
     1
102
RTVSPropertyOp28
 70
     1
102
RTVSPropertyOp29
 70
     1
102
RTVSPropertyOp30
 70
     1
102
RTVSPropertyOp31
 70
     1
102
RTVSPropertyOp32
 70
     1
  0
XRECORD
  5
752
102
{ACAD_REACTORS
330
751
102
}
330
751
100
AcDbXrecord
280
     1
102
RTVSPropertyOp0
 70
     1
102
RTVSPropertyOp1
 70
     1
102
RTVSPropertyOp2
 70
     1
102
RTVSPropertyOp3
 70
     1
102
RTVSPropertyOp4
 70
     1
102
RTVSPropertyOp5
 70
     1
102
RTVSPropertyOp6
 70
     1
102
RTVSPropertyOp7
 70
     1
102
RTVSPropertyOp8
 70
     1
102
RTVSPropertyOp9
 70
     1
102
RTVSPropertyOp10
 70
     1
102
RTVSPropertyOp11
 70
     1
102
RTVSPropertyOp12
 70
     1
102
RTVSPropertyOp13
 70
     1
102
RTVSPropertyOp14
 70
     1
102
RTVSPropertyOp15
 70
     1
102
RTVSPropertyOp16
 70
     1
102
RTVSPropertyOp17
 70
     1
102
RTVSPropertyOp18
 70
     1
102
RTVSPropertyOp19
 70
     1
102
RTVSPropertyOp20
 70
     1
102
RTVSPropertyOp21
 70
     1
102
RTVSPropertyOp22
 70
     1
102
RTVSPropertyOp23
 70
     1
102
RTVSPropertyOp24
 70
     1
102
RTVSPropertyOp25
 70
     1
102
RTVSPropertyOp26
 70
     1
102
RTVSPropertyOp27
 70
     1
102
RTVSPropertyOp28
 70
     1
102
RTVSPropertyOp29
 70
     1
102
RTVSPropertyOp30
 70
     1
102
RTVSPropertyOp31
 70
     1
102
RTVSPropertyOp32
 70
     1
  0
XRECORD
  5
75A
102
{ACAD_REACTORS
330
759
102
}
330
759
100
AcDbXrecord
280
     1
102
RTVSPropertyOp0
 70
     1
102
RTVSPropertyOp1
 70
     1
102
RTVSPropertyOp2
 70
     1
102
RTVSPropertyOp3
 70
     1
102
RTVSPropertyOp4
 70
     1
102
RTVSPropertyOp5
 70
     1
102
RTVSPropertyOp6
 70
     1
102
RTVSPropertyOp7
 70
     1
102
RTVSPropertyOp8
 70
     1
102
RTVSPropertyOp9
 70
     1
102
RTVSPropertyOp10
 70
     1
102
RTVSPropertyOp11
 70
     1
102
RTVSPropertyOp12
 70
     1
102
RTVSPropertyOp13
 70
     1
102
RTVSPropertyOp14
 70
     1
102
RTVSPropertyOp15
 70
     1
102
RTVSPropertyOp16
 70
     1
102
RTVSPropertyOp17
 70
     1
102
RTVSPropertyOp18
 70
     1
102
RTVSPropertyOp19
 70
     1
102
RTVSPropertyOp20
 70
     1
102
RTVSPropertyOp21
 70
     1
102
RTVSPropertyOp22
 70
     1
102
RTVSPropertyOp23
 70
     1
102
RTVSPropertyOp24
 70
     1
102
RTVSPropertyOp25
 70
     1
102
RTVSPropertyOp26
 70
     1
102
RTVSPropertyOp27
 70
     1
102
RTVSPropertyOp28
 70
     1
102
RTVSPropertyOp29
 70
     1
102
RTVSPropertyOp30
 70
     1
102
RTVSPropertyOp31
 70
     1
102
RTVSPropertyOp32
 70
     1
  0
XRECORD
  5
776
102
{ACAD_REACTORS
330
775
102
}
330
775
100
AcDbXrecord
280
     1
102
RTVSPropertyOp0
 70
     0
102
RTVSPropertyOp1
 70
     0
102
RTVSPropertyOp2
 70
     0
102
RTVSPropertyOp3
 70
     0
102
RTVSPropertyOp4
 70
     0
102
RTVSPropertyOp5
 70
     0
102
RTVSPropertyOp6
 70
     0
102
RTVSPropertyOp7
 70
     0
102
RTVSPropertyOp8
 70
     0
102
RTVSPropertyOp9
 70
     0
102
RTVSPropertyOp10
 70
     0
102
RTVSPropertyOp11
 70
     0
102
RTVSPropertyOp12
 70
     0
102
RTVSPropertyOp13
 70
     0
102
RTVSPropertyOp14
 70
     2
102
RTVSPropertyOp15
 70
     0
102
RTVSPropertyOp16
 70
     0
102
RTVSPropertyOp17
 70
     0
102
RTVSPropertyOp18
 70
     0
102
RTVSPropertyOp19
 70
     0
102
RTVSPropertyOp20
 70
     0
102
RTVSPropertyOp21
 70
     0
102
RTVSPropertyOp22
 70
     0
102
RTVSPropertyOp23
 70
     0
102
RTVSPropertyOp24
 70
     0
102
RTVSPropertyOp25
 70
     0
102
RTVSPropertyOp26
 70
     0
102
RTVSPropertyOp27
 70
     0
102
RTVSPropertyOp28
 70
     0
102
RTVSPropertyOp29
 70
     0
102
RTVSPropertyOp30
 70
     0
102
RTVSPropertyOp31
 70
     0
102
RTVSPropertyOp32
 70
     0
  0
XRECORD
  5
766
102
{ACAD_REACTORS
330
765
102
}
330
765
100
AcDbXrecord
280
     1
102
RTVSPropertyOp0
 70
     1
102
RTVSPropertyOp1
 70
     1
102
RTVSPropertyOp2
 70
     1
102
RTVSPropertyOp3
 70
     1
102
RTVSPropertyOp4
 70
     1
102
RTVSPropertyOp5
 70
     1
102
RTVSPropertyOp6
 70
     1
102
RTVSPropertyOp7
 70
     1
102
RTVSPropertyOp8
 70
     1
102
RTVSPropertyOp9
 70
     1
102
RTVSPropertyOp10
 70
     1
102
RTVSPropertyOp11
 70
     1
102
RTVSPropertyOp12
 70
     1
102
RTVSPropertyOp13
 70
     1
102
RTVSPropertyOp14
 70
     1
102
RTVSPropertyOp15
 70
     1
102
RTVSPropertyOp16
 70
     1
102
RTVSPropertyOp17
 70
     1
102
RTVSPropertyOp18
 70
     1
102
RTVSPropertyOp19
 70
     1
102
RTVSPropertyOp20
 70
     1
102
RTVSPropertyOp21
 70
     1
102
RTVSPropertyOp22
 70
     1
102
RTVSPropertyOp23
 70
     1
102
RTVSPropertyOp24
 70
     1
102
RTVSPropertyOp25
 70
     1
102
RTVSPropertyOp26
 70
     1
102
RTVSPropertyOp27
 70
     1
102
RTVSPropertyOp28
 70
     1
102
RTVSPropertyOp29
 70
     1
102
RTVSPropertyOp30
 70
     1
102
RTVSPropertyOp31
 70
     1
102
RTVSPropertyOp32
 70
     1
  0
XRECORD
  5
778
102
{ACAD_REACTORS
330
777
102
}
330
777
100
AcDbXrecord
280
     1
102
RTVSPropertyOp0
 70
     0
102
RTVSPropertyOp1
 70
     0
102
RTVSPropertyOp2
 70
     0
102
RTVSPropertyOp3
 70
     0
102
RTVSPropertyOp4
 70
     0
102
RTVSPropertyOp5
 70
     0
102
RTVSPropertyOp6
 70
     0
102
RTVSPropertyOp7
 70
     0
102
RTVSPropertyOp8
 70
     0
102
RTVSPropertyOp9
 70
     0
102
RTVSPropertyOp10
 70
     0
102
RTVSPropertyOp11
 70
     0
102
RTVSPropertyOp12
 70
     0
102
RTVSPropertyOp13
 70
     0
102
RTVSPropertyOp14
 70
     2
102
RTVSPropertyOp15
 70
     0
102
RTVSPropertyOp16
 70
     0
102
RTVSPropertyOp17
 70
     0
102
RTVSPropertyOp18
 70
     0
102
RTVSPropertyOp19
 70
     0
102
RTVSPropertyOp20
 70
     0
102
RTVSPropertyOp21
 70
     0
102
RTVSPropertyOp22
 70
     0
102
RTVSPropertyOp23
 70
     0
102
RTVSPropertyOp24
 70
     0
102
RTVSPropertyOp25
 70
     0
102
RTVSPropertyOp26
 70
     0
102
RTVSPropertyOp27
 70
     0
102
RTVSPropertyOp28
 70
     0
102
RTVSPropertyOp29
 70
     0
102
RTVSPropertyOp30
 70
     0
102
RTVSPropertyOp31
 70
     0
102
RTVSPropertyOp32
 70
     0
  0
XRECORD
  5
75E
102
{ACAD_REACTORS
330
75D
102
}
330
75D
100
AcDbXrecord
280
     1
102
RTVSPropertyOp0
 70
     1
102
RTVSPropertyOp1
 70
     1
102
RTVSPropertyOp2
 70
     1
102
RTVSPropertyOp3
 70
     1
102
RTVSPropertyOp4
 70
     1
102
RTVSPropertyOp5
 70
     1
102
RTVSPropertyOp6
 70
     1
102
RTVSPropertyOp7
 70
     1
102
RTVSPropertyOp8
 70
     1
102
RTVSPropertyOp9
 70
     1
102
RTVSPropertyOp10
 70
     1
102
RTVSPropertyOp11
 70
     1
102
RTVSPropertyOp12
 70
     1
102
RTVSPropertyOp13
 70
     1
102
RTVSPropertyOp14
 70
     1
102
RTVSPropertyOp15
 70
     1
102
RTVSPropertyOp16
 70
     1
102
RTVSPropertyOp17
 70
     1
102
RTVSPropertyOp18
 70
     1
102
RTVSPropertyOp19
 70
     1
102
RTVSPropertyOp20
 70
     1
102
RTVSPropertyOp21
 70
     1
102
RTVSPropertyOp22
 70
     1
102
RTVSPropertyOp23
 70
     1
102
RTVSPropertyOp24
 70
     1
102
RTVSPropertyOp25
 70
     1
102
RTVSPropertyOp26
 70
     1
102
RTVSPropertyOp27
 70
     1
102
RTVSPropertyOp28
 70
     1
102
RTVSPropertyOp29
 70
     1
102
RTVSPropertyOp30
 70
     1
102
RTVSPropertyOp31
 70
     1
102
RTVSPropertyOp32
 70
     1
  0
XRECORD
  5
774
102
{ACAD_REACTORS
330
773
102
}
330
773
100
AcDbXrecord
280
     1
102
RTVSPropertyOp0
 70
     1
102
RTVSPropertyOp1
 70
     1
102
RTVSPropertyOp2
 70
     1
102
RTVSPropertyOp3
 70
     1
102
RTVSPropertyOp4
 70
     1
102
RTVSPropertyOp5
 70
     1
102
RTVSPropertyOp6
 70
     1
102
RTVSPropertyOp7
 70
     1
102
RTVSPropertyOp8
 70
     1
102
RTVSPropertyOp9
 70
     1
102
RTVSPropertyOp10
 70
     1
102
RTVSPropertyOp11
 70
     1
102
RTVSPropertyOp12
 70
     1
102
RTVSPropertyOp13
 70
     1
102
RTVSPropertyOp14
 70
     1
102
RTVSPropertyOp15
 70
     1
102
RTVSPropertyOp16
 70
     1
102
RTVSPropertyOp17
 70
     1
102
RTVSPropertyOp18
 70
     1
102
RTVSPropertyOp19
 70
     1
102
RTVSPropertyOp20
 70
     1
102
RTVSPropertyOp21
 70
     1
102
RTVSPropertyOp22
 70
     1
102
RTVSPropertyOp23
 70
     1
102
RTVSPropertyOp24
 70
     1
102
RTVSPropertyOp25
 70
     1
102
RTVSPropertyOp26
 70
     1
102
RTVSPropertyOp27
 70
     1
102
RTVSPropertyOp28
 70
     1
102
RTVSPropertyOp29
 70
     1
102
RTVSPropertyOp30
 70
     1
102
RTVSPropertyOp31
 70
     1
102
RTVSPropertyOp32
 70
     1
  0
XRECORD
  5
772
102
{ACAD_REACTORS
330
771
102
}
330
771
100
AcDbXrecord
280
     1
102
RTVSPropertyOp0
 70
     1
102
RTVSPropertyOp1
 70
     1
102
RTVSPropertyOp2
 70
     1
102
RTVSPropertyOp3
 70
     1
102
RTVSPropertyOp4
 70
     1
102
RTVSPropertyOp5
 70
     1
102
RTVSPropertyOp6
 70
     1
102
RTVSPropertyOp7
 70
     1
102
RTVSPropertyOp8
 70
     1
102
RTVSPropertyOp9
 70
     1
102
RTVSPropertyOp10
 70
     1
102
RTVSPropertyOp11
 70
     1
102
RTVSPropertyOp12
 70
     1
102
RTVSPropertyOp13
 70
     1
102
RTVSPropertyOp14
 70
     1
102
RTVSPropertyOp15
 70
     1
102
RTVSPropertyOp16
 70
     1
102
RTVSPropertyOp17
 70
     1
102
RTVSPropertyOp18
 70
     1
102
RTVSPropertyOp19
 70
     1
102
RTVSPropertyOp20
 70
     1
102
RTVSPropertyOp21
 70
     1
102
RTVSPropertyOp22
 70
     1
102
RTVSPropertyOp23
 70
     1
102
RTVSPropertyOp24
 70
     1
102
RTVSPropertyOp25
 70
     1
102
RTVSPropertyOp26
 70
     1
102
RTVSPropertyOp27
 70
     1
102
RTVSPropertyOp28
 70
     1
102
RTVSPropertyOp29
 70
     1
102
RTVSPropertyOp30
 70
     1
102
RTVSPropertyOp31
 70
     1
102
RTVSPropertyOp32
 70
     1
  0
XRECORD
  5
76C
102
{ACAD_REACTORS
330
76B
102
}
330
76B
100
AcDbXrecord
280
     1
102
RTVSPropertyOp0
 70
     1
102
RTVSPropertyOp1
 70
     1
102
RTVSPropertyOp2
 70
     1
102
RTVSPropertyOp3
 70
     1
102
RTVSPropertyOp4
 70
     1
102
RTVSPropertyOp5
 70
     1
102
RTVSPropertyOp6
 70
     1
102
RTVSPropertyOp7
 70
     1
102
RTVSPropertyOp8
 70
     1
102
RTVSPropertyOp9
 70
     1
102
RTVSPropertyOp10
 70
     1
102
RTVSPropertyOp11
 70
     1
102
RTVSPropertyOp12
 70
     1
102
RTVSPropertyOp13
 70
     1
102
RTVSPropertyOp14
 70
     1
102
RTVSPropertyOp15
 70
     1
102
RTVSPropertyOp16
 70
     1
102
RTVSPropertyOp17
 70
     1
102
RTVSPropertyOp18
 70
     1
102
RTVSPropertyOp19
 70
     1
102
RTVSPropertyOp20
 70
     1
102
RTVSPropertyOp21
 70
     1
102
RTVSPropertyOp22
 70
     1
102
RTVSPropertyOp23
 70
     1
102
RTVSPropertyOp24
 70
     1
102
RTVSPropertyOp25
 70
     1
102
RTVSPropertyOp26
 70
     1
102
RTVSPropertyOp27
 70
     1
102
RTVSPropertyOp28
 70
     1
102
RTVSPropertyOp29
 70
     1
102
RTVSPropertyOp30
 70
     1
102
RTVSPropertyOp31
 70
     1
102
RTVSPropertyOp32
 70
     1
  0
XRECORD
  5
76E
102
{ACAD_REACTORS
330
76D
102
}
330
76D
100
AcDbXrecord
280
     1
102
RTVSPropertyOp0
 70
     1
102
RTVSPropertyOp1
 70
     1
102
RTVSPropertyOp2
 70
     1
102
RTVSPropertyOp3
 70
     1
102
RTVSPropertyOp4
 70
     1
102
RTVSPropertyOp5
 70
     1
102
RTVSPropertyOp6
 70
     1
102
RTVSPropertyOp7
 70
     1
102
RTVSPropertyOp8
 70
     1
102
RTVSPropertyOp9
 70
     1
102
RTVSPropertyOp10
 70
     1
102
RTVSPropertyOp11
 70
     1
102
RTVSPropertyOp12
 70
     1
102
RTVSPropertyOp13
 70
     1
102
RTVSPropertyOp14
 70
     1
102
RTVSPropertyOp15
 70
     1
102
RTVSPropertyOp16
 70
     1
102
RTVSPropertyOp17
 70
     1
102
RTVSPropertyOp18
 70
     1
102
RTVSPropertyOp19
 70
     1
102
RTVSPropertyOp20
 70
     1
102
RTVSPropertyOp21
 70
     1
102
RTVSPropertyOp22
 70
     1
102
RTVSPropertyOp23
 70
     1
102
RTVSPropertyOp24
 70
     1
102
RTVSPropertyOp25
 70
     1
102
RTVSPropertyOp26
 70
     1
102
RTVSPropertyOp27
 70
     1
102
RTVSPropertyOp28
 70
     1
102
RTVSPropertyOp29
 70
     1
102
RTVSPropertyOp30
 70
     1
102
RTVSPropertyOp31
 70
     1
102
RTVSPropertyOp32
 70
     1
  0
XRECORD
  5
764
102
{ACAD_REACTORS
330
763
102
}
330
763
100
AcDbXrecord
280
     1
102
RTVSPropertyOp0
 70
     1
102
RTVSPropertyOp1
 70
     1
102
RTVSPropertyOp2
 70
     1
102
RTVSPropertyOp3
 70
     1
102
RTVSPropertyOp4
 70
     1
102
RTVSPropertyOp5
 70
     1
102
RTVSPropertyOp6
 70
     1
102
RTVSPropertyOp7
 70
     1
102
RTVSPropertyOp8
 70
     1
102
RTVSPropertyOp9
 70
     1
102
RTVSPropertyOp10
 70
     1
102
RTVSPropertyOp11
 70
     1
102
RTVSPropertyOp12
 70
     1
102
RTVSPropertyOp13
 70
     1
102
RTVSPropertyOp14
 70
     1
102
RTVSPropertyOp15
 70
     1
102
RTVSPropertyOp16
 70
     1
102
RTVSPropertyOp17
 70
     1
102
RTVSPropertyOp18
 70
     1
102
RTVSPropertyOp19
 70
     1
102
RTVSPropertyOp20
 70
     1
102
RTVSPropertyOp21
 70
     1
102
RTVSPropertyOp22
 70
     1
102
RTVSPropertyOp23
 70
     1
102
RTVSPropertyOp24
 70
     1
102
RTVSPropertyOp25
 70
     1
102
RTVSPropertyOp26
 70
     1
102
RTVSPropertyOp27
 70
     1
102
RTVSPropertyOp28
 70
     1
102
RTVSPropertyOp29
 70
     1
102
RTVSPropertyOp30
 70
     1
102
RTVSPropertyOp31
 70
     1
102
RTVSPropertyOp32
 70
     1
  0
XRECORD
  5
758
102
{ACAD_REACTORS
330
757
102
}
330
757
100
AcDbXrecord
280
     1
102
RTVSPropertyOp0
 70
     1
102
RTVSPropertyOp1
 70
     1
102
RTVSPropertyOp2
 70
     1
102
RTVSPropertyOp3
 70
     1
102
RTVSPropertyOp4
 70
     1
102
RTVSPropertyOp5
 70
     1
102
RTVSPropertyOp6
 70
     1
102
RTVSPropertyOp7
 70
     1
102
RTVSPropertyOp8
 70
     1
102
RTVSPropertyOp9
 70
     1
102
RTVSPropertyOp10
 70
     1
102
RTVSPropertyOp11
 70
     1
102
RTVSPropertyOp12
 70
     1
102
RTVSPropertyOp13
 70
     1
102
RTVSPropertyOp14
 70
     1
102
RTVSPropertyOp15
 70
     1
102
RTVSPropertyOp16
 70
     1
102
RTVSPropertyOp17
 70
     1
102
RTVSPropertyOp18
 70
     1
102
RTVSPropertyOp19
 70
     1
102
RTVSPropertyOp20
 70
     1
102
RTVSPropertyOp21
 70
     1
102
RTVSPropertyOp22
 70
     1
102
RTVSPropertyOp23
 70
     1
102
RTVSPropertyOp24
 70
     1
102
RTVSPropertyOp25
 70
     1
102
RTVSPropertyOp26
 70
     1
102
RTVSPropertyOp27
 70
     1
102
RTVSPropertyOp28
 70
     1
102
RTVSPropertyOp29
 70
     1
102
RTVSPropertyOp30
 70
     1
102
RTVSPropertyOp31
 70
     1
102
RTVSPropertyOp32
 70
     1
  0
XRECORD
  5
770
102
{ACAD_REACTORS
330
76F
102
}
330
76F
100
AcDbXrecord
280
     1
102
RTVSPropertyOp0
 70
     1
102
RTVSPropertyOp1
 70
     1
102
RTVSPropertyOp2
 70
     1
102
RTVSPropertyOp3
 70
     1
102
RTVSPropertyOp4
 70
     1
102
RTVSPropertyOp5
 70
     1
102
RTVSPropertyOp6
 70
     1
102
RTVSPropertyOp7
 70
     1
102
RTVSPropertyOp8
 70
     1
102
RTVSPropertyOp9
 70
     1
102
RTVSPropertyOp10
 70
     1
102
RTVSPropertyOp11
 70
     1
102
RTVSPropertyOp12
 70
     1
102
RTVSPropertyOp13
 70
     1
102
RTVSPropertyOp14
 70
     1
102
RTVSPropertyOp15
 70
     1
102
RTVSPropertyOp16
 70
     1
102
RTVSPropertyOp17
 70
     1
102
RTVSPropertyOp18
 70
     1
102
RTVSPropertyOp19
 70
     1
102
RTVSPropertyOp20
 70
     1
102
RTVSPropertyOp21
 70
     1
102
RTVSPropertyOp22
 70
     1
102
RTVSPropertyOp23
 70
     1
102
RTVSPropertyOp24
 70
     1
102
RTVSPropertyOp25
 70
     1
102
RTVSPropertyOp26
 70
     1
102
RTVSPropertyOp27
 70
     1
102
RTVSPropertyOp28
 70
     1
102
RTVSPropertyOp29
 70
     1
102
RTVSPropertyOp30
 70
     1
102
RTVSPropertyOp31
 70
     1
102
RTVSPropertyOp32
 70
     1
  0
ENDSEC
  0
EOF
