  0
SECTION
  2
HEADER
  9
$ACADVER
  1
AC1021
  9
$ACADMAINTVER
 70
    50
  9
$DWGCODEPAGE
  3
ANSI_1252
  9
$LASTSAVEDBY
  1
DBrewer
  9
$INSBASE
 10
0.0
 20
0.0
 30
0.0
  9
$EXTMIN
 10
-0.5003814406231762
 20
-0.5002898948736139
 30
-0.0015258207003583
  9
$EXTMAX
 10
11.5006561564522
 20
9.000289939111436
 30
0.0000000349246037
  9
$LIMMIN
 10
0.0
 20
0.0
  9
$LIMMAX
 10
12.0
 20
9.0
  9
$ORTHOMODE
 70
     1
  9
$REGENMODE
 70
     1
  9
$FILLMODE
 70
     1
  9
$QTEXTMODE
 70
     0
  9
$MIRRTEXT
 70
     1
  9
$LTSCALE
 40
0.25
  9
$ATTMODE
 70
     1
  9
$TEXTSIZE
 40
0.07
  9
$TRACEWID
 40
0.05
  9
$TEXTSTYLE
  7
ARIAL2
  9
$CLAYER
  8
PAPER
  9
$CELTYPE
  6
BYLAYER
  9
$CECOLOR
 62
   256
  9
$CELTSCALE
 40
1.0
  9
$DISPSILH
 70
     0
  9
$DIMSCALE
 40
1.0
  9
$DIMASZ
 40
0.07
  9
$DIMEXO
 40
0.09
  9
$DIMDLI
 40
0.38
  9
$DIMRND
 40
0.0
  9
$DIMDLE
 40
0.0
  9
$DIMEXE
 40
0.06
  9
$DIMTP
 40
0.0
  9
$DIMTM
 40
0.0
  9
$DIMTXT
 40
0.07
  9
$DIMCEN
 40
0.09
  9
$DIMTSZ
 40
0.0
  9
$DIMTOL
 70
     0
  9
$DIMLIM
 70
     0
  9
$DIMTIH
 70
     0
  9
$DIMTOH
 70
     1
  9
$DIMSE1
 70
     0
  9
$DIMSE2
 70
     0
  9
$DIMTAD
 70
     0
  9
$DIMZIN
 70
     0
  9
$DIMBLK
  1

  9
$DIMASO
 70
     1
  9
$DIMSHO
 70
     0
  9
$DIMPOST
  1

  9
$DIMAPOST
  1

  9
$DIMALT
 70
     0
  9
$DIMALTD
 70
     2
  9
$DIMALTF
 40
25.4
  9
$DIMLFAC
 40
1.0
  9
$DIMTOFL
 70
     0
  9
$DIMTVP
 40
0.0
  9
$DIMTIX
 70
     1
  9
$DIMSOXD
 70
     0
  9
$DIMSAH
 70
     0
  9
$DIMBLK1
  1

  9
$DIMBLK2
  1

  9
$DIMSTYLE
  2
STANDARD
  9
$DIMCLRD
 70
     0
  9
$DIMCLRE
 70
     0
  9
$DIMCLRT
 70
     0
  9
$DIMTFAC
 40
1.0
  9
$DIMGAP
 40
0.09
  9
$DIMJUST
 70
     0
  9
$DIMSD1
 70
     0
  9
$DIMSD2
 70
     0
  9
$DIMTOLJ
 70
     1
  9
$DIMTZIN
 70
     0
  9
$DIMALTZ
 70
     0
  9
$DIMALTTZ
 70
     0
  9
$DIMUPT
 70
     0
  9
$DIMDEC
 70
     4
  9
$DIMTDEC
 70
     4
  9
$DIMALTU
 70
     2
  9
$DIMALTTD
 70
     2
  9
$DIMTXSTY
  7
STANDARD
  9
$DIMAUNIT
 70
     0
  9
$DIMADEC
 70
     0
  9
$DIMALTRND
 40
0.0
  9
$DIMAZIN
 70
     0
  9
$DIMDSEP
 70
    46
  9
$DIMATFIT
 70
     3
  9
$DIMFRAC
 70
     0
  9
$DIMLDRBLK
  1

  9
$DIMLUNIT
 70
     2
  9
$DIMLWD
 70
    -2
  9
$DIMLWE
 70
    -2
  9
$DIMTMOVE
 70
     2
  9
$DIMFXL
 40
1.0
  9
$DIMFXLON
 70
     0
  9
$DIMJOGANG
 40
0.7853981633974483
  9
$DIMTFILL
 70
     0
  9
$DIMTFILLCLR
 70
     0
  9
$DIMARCSYM
 70
     0
  9
$DIMLTYPE
  6

  9
$DIMLTEX1
  6

  9
$DIMLTEX2
  6

  9
$LUNITS
 70
     2
  9
$LUPREC
 70
     4
  9
$SKETCHINC
 40
0.1
  9
$FILLETRAD
 40
0.0277878858050222
  9
$AUNITS
 70
     0
  9
$AUPREC
 70
     0
  9
$MENU
  1
ACAD
  9
$ELEVATION
 40
0.0
  9
$PELEVATION
 40
0.0
  9
$THICKNESS
 40
0.0
  9
$LIMCHECK
 70
     0
  9
$CHAMFERA
 40
0.0
  9
$CHAMFERB
 40
0.0
  9
$CHAMFERC
 40
0.0
  9
$CHAMFERD
 40
0.0
  9
$SKPOLY
 70
     0
  9
$TDCREATE
 40
2449766.717668519
  9
$TDUCREATE
 40
2449766.884335185
  9
$TDUPDATE
 40
2455709.566701736
  9
$TDUUPDATE
 40
2455709.733368403
  9
$TDINDWG
 40
0.0239558449
  9
$TDUSRTIMER
 40
0.0239558449
  9
$USRTIMER
 70
     1
  9
$ANGBASE
 50
0.0
  9
$ANGDIR
 70
     0
  9
$PDMODE
 70
     0
  9
$PDSIZE
 40
0.0
  9
$PLINEWID
 40
0.0
  9
$SPLFRAME
 70
     0
  9
$SPLINETYPE
 70
     6
  9
$SPLINESEGS
 70
     8
  9
$HANDSEED
  5
783
  9
$SURFTAB1
 70
     6
  9
$SURFTAB2
 70
     6
  9
$SURFTYPE
 70
     6
  9
$SURFU
 70
     6
  9
$SURFV
 70
     6
  9
$UCSBASE
  2

  9
$UCSNAME
  2

  9
$UCSORG
 10
0.0
 20
0.0
 30
0.0
  9
$UCSXDIR
 10
1.0
 20
0.0
 30
0.0
  9
$UCSYDIR
 10
0.0
 20
1.0
 30
0.0
  9
$UCSORTHOREF
  2

  9
$UCSORTHOVIEW
 70
     0
  9
$UCSORGTOP
 10
0.0
 20
0.0
 30
0.0
  9
$UCSORGBOTTOM
 10
0.0
 20
0.0
 30
0.0
  9
$UCSORGLEFT
 10
0.0
 20
0.0
 30
0.0
  9
$UCSORGRIGHT
 10
0.0
 20
0.0
 30
0.0
  9
$UCSORGFRONT
 10
0.0
 20
0.0
 30
0.0
  9
$UCSORGBACK
 10
0.0
 20
0.0
 30
0.0
  9
$PUCSBASE
  2

  9
$PUCSNAME
  2

  9
$PUCSORG
 10
0.0
 20
0.0
 30
0.0
  9
$PUCSXDIR
 10
1.0
 20
0.0
 30
0.0
  9
$PUCSYDIR
 10
0.0
 20
1.0
 30
0.0
  9
$PUCSORTHOREF
  2

  9
$PUCSORTHOVIEW
 70
     0
  9
$PUCSORGTOP
 10
0.0
 20
0.0
 30
0.0
  9
$PUCSORGBOTTOM
 10
0.0
 20
0.0
 30
0.0
  9
$PUCSORGLEFT
 10
0.0
 20
0.0
 30
0.0
  9
$PUCSORGRIGHT
 10
0.0
 20
0.0
 30
0.0
  9
$PUCSORGFRONT
 10
0.0
 20
0.0
 30
0.0
  9
$PUCSORGBACK
 10
0.0
 20
0.0
 30
0.0
  9
$USERI1
 70
     0
  9
$USERI2
 70
     0
  9
$USERI3
 70
     0
  9
$USERI4
 70
     0
  9
$USERI5
 70
     0
  9
$USERR1
 40
0.0
  9
$USERR2
 40
0.0
  9
$USERR3
 40
0.0
  9
$USERR4
 40
0.0
  9
$USERR5
 40
0.0
  9
$WORLDVIEW
 70
     1
  9
$SHADEDGE
 70
     3
  9
$SHADEDIF
 70
    70
  9
$TILEMODE
 70
     1
  9
$MAXACTVP
 70
    16
  9
$PINSBASE
 10
0.0
 20
0.0
 30
0.0
  9
$PLIMCHECK
 70
     0
  9
$PEXTMIN
 10
1.000000000000000E+20
 20
1.000000000000000E+20
 30
1.000000000000000E+20
  9
$PEXTMAX
 10
-1.000000000000000E+20
 20
-1.000000000000000E+20
 30
-1.000000000000000E+20
  9
$PLIMMIN
 10
0.0
 20
0.0
  9
$PLIMMAX
 10
12.0
 20
9.0
  9
$UNITMODE
 70
     0
  9
$VISRETAIN
 70
     0
  9
$PLINEGEN
 70
     0
  9
$PSLTSCALE
 70
     0
  9
$TREEDEPTH
 70
  3020
  9
$CMLSTYLE
  2
STANDARD
  9
$CMLJUST
 70
     0
  9
$CMLSCALE
 40
1.0
  9
$PROXYGRAPHICS
 70
     1
  9
$MEASUREMENT
 70
     0
  9
$CELWEIGHT
370
    -1
  9
$ENDCAPS
280
     0
  9
$JOINSTYLE
280
     0
  9
$LWDISPLAY
290
     0
  9
$INSUNITS
 70
     0
  9
$HYPERLINKBASE
  1

  9
$STYLESHEET
  1
monochrome.ctb
  9
$XEDIT
290
     1
  9
$CEPSNTYPE
380
     0
  9
$PSTYLEMODE
290
     1
  9
$FINGERPRINTGUID
  2
{FBDC1B73-F08C-11D4-8FEB-0001036949CE}
  9
$VERSIONGUID
  2
{83D62E2D-3344-42C6-B9F3-190A560B9856}
  9
$EXTNAMES
290
     1
  9
$PSVPSCALE
 40
0.0
  9
$OLESTARTUP
290
     0
  9
$SORTENTS
280
   127
  9
$INDEXCTL
280
     0
  9
$HIDETEXT
280
     0
  9
$XCLIPFRAME
290
     0
  9
$HALOGAP
280
     0
  9
$OBSCOLOR
 70
   257
  9
$OBSLTYPE
280
     0
  9
$INTERSECTIONDISPLAY
280
     0
  9
$INTERSECTIONCOLOR
 70
   257
  9
$DIMASSOC
280
     1
  9
$PROJECTNAME
  1

  9
$CAMERADISPLAY
290
     0
  9
$LENSLENGTH
 40
50.0
  9
$CAMERAHEIGHT
 40
0.0
  9
$STEPSPERSEC
 40
2.0
  9
$STEPSIZE
 40
6.0
  9
$3DDWFPREC
 40
2.0
  9
$PSOLWIDTH
 40
0.25
  9
$PSOLHEIGHT
 40
4.0
  9
$LOFTANG1
 40
1.570796326794896
  9
$LOFTANG2
 40
1.570796326794896
  9
$LOFTMAG1
 40
0.0
  9
$LOFTMAG2
 40
0.0
  9
$LOFTPARAM
 70
     7
  9
$LOFTNORMALS
280
     1
  9
$LATITUDE
 40
37.795
  9
$LONGITUDE
 40
-122.394
  9
$NORTHDIRECTION
 40
0.0
  9
$TIMEZONE
 70
 -8000
  9
$LIGHTGLYPHDISPLAY
280
     1
  9
$TILEMODELIGHTSYNCH
280
     1
  9
$CMATERIAL
347
692
  9
$SOLIDHIST
280
     1
  9
$SHOWHIST
280
     1
  9
$DWFFRAME
280
     2
  9
$DGNFRAME
280
     0
  9
$REALWORLDSCALE
290
     1
  9
$INTERFERECOLOR
 62
     1
  9
$INTERFEREOBJVS
345
6B4
  9
$INTERFEREVPVS
346
6B1
  9
$CSHADOW
280
     0
  9
$SHADOWPLANELOCATION
 40
0.0
  0
ENDSEC
  0
SECTION
  2
CLASSES
  0
CLASS
  1
DICTIONARYVAR
  2
AcDbDictionaryVar
  3
ObjectDBX Classes
 90
        0
 91
       17
280
     0
281
     0
  0
CLASS
  1
ACDBDICTIONARYWDFLT
  2
AcDbDictionaryWithDefault
  3
ObjectDBX Classes
 90
        0
 91
        1
280
     0
281
     0
  0
CLASS
  1
MATERIAL
  2
AcDbMaterial
  3
ObjectDBX Classes
 90
     1153
 91
        3
280
     0
281
     0
  0
CLASS
  1
VISUALSTYLE
  2
AcDbVisualStyle
  3
ObjectDBX Classes
 90
     4095
 91
       24
280
     0
281
     0
  0
CLASS
  1
TABLESTYLE
  2
AcDbTableStyle
  3
ObjectDBX Classes
 90
     4095
 91
        1
280
     0
281
     0
  0
CLASS
  1
SCALE
  2
AcDbScale
  3
ObjectDBX Classes
 90
     1153
 91
       17
280
     0
281
     0
  0
CLASS
  1
MLEADERSTYLE
  2
AcDbMLeaderStyle
  3
ACDB_MLEADERSTYLE_CLASS
 90
     4095
 91
        1
280
     0
281
     0
  0
CLASS
  1
CELLSTYLEMAP
  2
AcDbCellStyleMap
  3
ObjectDBX Classes
 90
     1152
 91
        2
280
     0
281
     0
  0
ENDSEC
  0
SECTION
  2
TABLES
  0
TABLE
  2
VPORT
  5
8
330
0
100
AcDbSymbolTable
 70
     1
  0
VPORT
  5
68F
330
8
100
AcDbSymbolTableRecord
100
AcDbViewportTableRecord
  2
*Active
 70
     0
 10
0.0
 20
0.0
 11
1.0
 21
1.0
 12
5.142818850649906
 22
4.287753772436524
 13
0.0
 23
0.0
 14
0.03125
 24
0.03125
 15
0.0
 25
0.0
 16
0.0
 26
0.0
 36
1.0
 17
0.3573185072646075
 27
-0.0377537503176128
 37
-0.833359574243258
 40
9.565536050925986
 41
1.448863636363636
 42
50.0
 43
0.0
 44
0.0
 50
0.0
 51
0.0
 71
     0
 72
   100
 73
     1
 74
     0
 75
     0
 76
     0
 77
     0
 78
     0
281
     0
 65
     1
110
0.0
120
0.0
130
0.0
111
1.0
121
0.0
131
0.0
112
0.0
122
1.0
132
0.0
 79
     0
146
0.0
348
6B0
 60
     3
 61
     5
292
     1
282
     1
141
0.0
142
0.0
 63
   250
421
  3355443
  0
ENDTAB
  0
TABLE
  2
LTYPE
  5
5
330
0
100
AcDbSymbolTable
 70
     5
  0
LTYPE
  5
11
330
5
100
AcDbSymbolTableRecord
100
AcDbLinetypeTableRecord
  2
BYBLOCK
 70
     0
  3

 72
    65
 73
     0
 40
0.0
  0
LTYPE
  5
12
330
5
100
AcDbSymbolTableRecord
100
AcDbLinetypeTableRecord
  2
BYLAYER
 70
     0
  3

 72
    65
 73
     0
 40
0.0
  0
LTYPE
  5
13
330
5
100
AcDbSymbolTableRecord
100
AcDbLinetypeTableRecord
  2
CONTINUOUS
 70
     0
  3
Solid line
 72
    65
 73
     0
 40
0.0
  0
LTYPE
  5
25
330
5
100
AcDbSymbolTableRecord
100
AcDbLinetypeTableRecord
  2
CENTER
 70
     0
  3
____ _ ____ _ ____ _ ____ _ ____ _ ____ _ ____
 72
    65
 73
     4
 40
2.0
 49
1.25
 74
     0
 49
-0.25
 74
     0
 49
0.25
 74
     0
 49
-0.25
 74
     0
  0
LTYPE
  5
26
330
5
100
AcDbSymbolTableRecord
100
AcDbLinetypeTableRecord
  2
HIDDEN
 70
     0
  3
_ _ _ _ _ _ _ _ _ _ _ _ _ _ _ _ _ _ _ _ _ _ _
 72
    65
 73
     2
 40
0.375
 49
0.25
 74
     0
 49
-0.125
 74
     0
  0
LTYPE
  5
27
330
5
100
AcDbSymbolTableRecord
100
AcDbLinetypeTableRecord
  2
PHANTOM
 70
     0
  3
_____ _ _ _____ _ _ _____ _ _ _____ _ _ ____
 72
    65
 73
     6
 40
2.5
 49
1.25
 74
     0
 49
-0.25
 74
     0
 49
0.25
 74
     0
 49
-0.25
 74
     0
 49
0.25
 74
     0
 49
-0.25
 74
     0
  0
ENDTAB
  0
TABLE
  2
LAYER
  5
2
102
{ACAD_XDICTIONARY
360
6E7
102
}
330
0
100
AcDbSymbolTable
 70
     3
  0
LAYER
  5
E
102
{ACAD_XDICTIONARY
360
6F5
102
}
330
2
100
AcDbSymbolTableRecord
100
AcDbLayerTableRecord
  2
0
 70
     0
 62
     7
  6
CONTINUOUS
370
    -3
390
5E2
347
6A2
  0
LAYER
  5
2A
102
{ACAD_XDICTIONARY
360
6F7
102
}
330
2
100
AcDbSymbolTableRecord
100
AcDbLayerTableRecord
  2
PAPER
 70
     0
 62
     2
  6
CONTINUOUS
370
    -3
390
5E2
347
6A2
  0
LAYER
  5
2C
330
2
100
AcDbSymbolTableRecord
100
AcDbLayerTableRecord
  2
DEFPOINTS
 70
     0
 62
     7
  6
CONTINUOUS
290
     0
370
    -3
390
5E2
347
6A2
  0
ENDTAB
  0
TABLE
  2
STYLE
  5
3
330
0
100
AcDbSymbolTable
 70
     8
  0
STYLE
  5
F
330
3
100
AcDbSymbolTableRecord
100
AcDbTextStyleTableRecord
  2
STANDARD
 70
     0
 40
0.0
 41
1.0
 50
0.0
 71
     0
 42
0.07
  3
ROMANS
  4

  0
STYLE
  5
22
330
3
100
AcDbSymbolTableRecord
100
AcDbTextStyleTableRecord
  2
ROMANT
 70
     0
 40
0.0
 41
1.0
 50
0.0
 71
     0
 42
0.06
  3
romant
  4

  0
STYLE
  5
23
330
3
100
AcDbSymbolTableRecord
100
AcDbTextStyleTableRecord
  2
B
 70
     0
 40
0.0
 41
1.0
 50
0.0
 71
     0
 42
0.07
  3
romand
  4

  0
STYLE
  5
24
330
3
100
AcDbSymbolTableRecord
100
AcDbTextStyleTableRecord
  2
S
 70
     0
 40
0.0
 41
1.0
 50
0.0
 71
     0
 42
0.07
  3
ROMANS
  4

  0
STYLE
  5
5EB
330
3
100
AcDbSymbolTableRecord
100
AcDbTextStyleTableRecord
  2
arial1
 70
     0
 40
0.0
 41
1.0
 50
0.0
 71
     0
 42
0.07
  3
ARIAL.TTF
  4

1001
ACAD
1000
Arial
1071
       34
  0
STYLE
  5
683
330
3
100
AcDbSymbolTableRecord
100
AcDbTextStyleTableRecord
  2
ARIALB
 70
     0
 40
0.0
 41
1.0
 50
0.0
 71
     0
 42
0.07
  3
ARIBLK.TTF
  4

1001
ACAD
1000
Arial Black
1071
       34
  0
STYLE
  5
68D
330
3
100
AcDbSymbolTableRecord
100
AcDbTextStyleTableRecord
  2
ARIAL2
 70
     0
 40
0.0
 41
1.0
 50
0.0
 71
     0
 42
0.07
  3
ARIALBD.TTF
  4

1001
ACAD
1000
Arial
1071
 33554466
  0
ENDTAB
  0
TABLE
  2
VIEW
  5
6
330
0
100
AcDbSymbolTable
 70
     1
  0
ENDTAB
  0
TABLE
  2
UCS
  5
7
330
0
100
AcDbSymbolTable
 70
     0
  0
ENDTAB
  0
TABLE
  2
APPID
  5
9
330
0
100
AcDbSymbolTable
 70
     4
  0
APPID
  5
10
330
9
100
AcDbSymbolTableRecord
100
AcDbRegAppTableRecord
  2
ACAD
 70
     0
  0
APPID
  5
6E4
330
9
100
AcDbSymbolTableRecord
100
AcDbRegAppTableRecord
  2
ACAD_EXEMPT_FROM_CAD_STANDARDS
 70
     0
  0
APPID
  5
6E6
330
9
100
AcDbSymbolTableRecord
100
AcDbRegAppTableRecord
  2
ACAD_PSEXT
 70
     0
  0
APPID
  5
782
330
9
100
AcDbSymbolTableRecord
100
AcDbRegAppTableRecord
  2
ACAD_MLEADERVER
 70
     0
  0
ENDTAB
  0
TABLE
  2
DIMSTYLE
  5
A
330
0
100
AcDbSymbolTable
 70
     2
100
AcDbDimStyleTable
 71
     1
340
5D1
  0
DIMSTYLE
105
5D1
330
A
100
AcDbSymbolTableRecord
100
AcDbDimStyleTableRecord
  2
STANDARD
 70
     0
340
F
  0
ENDTAB
  0
TABLE
  2
BLOCK_RECORD
  5
1
330
0
100
AcDbSymbolTable
 70
     5
  0
BLOCK_RECORD
  5
17
330
1
100
AcDbSymbolTableRecord
100
AcDbBlockTableRecord
  2
*MODEL_SPACE
340
5E5
 70
     0
280
     1
281
     0
  0
BLOCK_RECORD
  5
14
330
1
100
AcDbSymbolTableRecord
100
AcDbBlockTableRecord
  2
*PAPER_SPACE
340
5E6
 70
     0
280
     1
281
     0
  0
BLOCK_RECORD
  5
1C
330
1
100
AcDbSymbolTableRecord
100
AcDbBlockTableRecord
  2
RECT
340
0
102
{BLKREFS
331
428
331
429
331
42C
331
42D
331
42E
331
44F
331
450
331
451
331
452
331
4D3
331
4D4
331
514
331
515
331
517
331
518
331
528
331
52A
331
5B4
102
}
 70
     0
280
     1
281
     0
  0
BLOCK_RECORD
  5
21
330
1
100
AcDbSymbolTableRecord
100
AcDbBlockTableRecord
  2
12393
340
0
102
{BLKREFS
331
5D0
102
}
 70
     0
280
     1
281
     0
  0
BLOCK_RECORD
  5
5D9
330
1
100
AcDbSymbolTableRecord
100
AcDbBlockTableRecord
  2
A$C0C8E303C
340
0
 70
     0
280
     1
281
     0
  0
ENDTAB
  0
ENDSEC
  0
SECTION
  2
BLOCKS
  0
BLOCK
  5
34
330
17
100
AcDbEntity
  8
0
100
AcDbBlockBegin
  2
*MODEL_SPACE
 70
     0
 10
0.0
 20
0.0
 30
0.0
  3
*MODEL_SPACE
  1

  0
ENDBLK
  5
35
330
17
100
AcDbEntity
  8
0
100
AcDbBlockEnd
  0
BLOCK
  5
32
330
14
100
AcDbEntity
 67
     1
  8
0
100
AcDbBlockBegin
  2
*PAPER_SPACE
 70
     0
 10
0.0
 20
0.0
 30
0.0
  3
*PAPER_SPACE
  1

  0
ENDBLK
  5
33
330
14
100
AcDbEntity
 67
     1
  8
0
100
AcDbBlockEnd
  0
BLOCK
  5
38
330
1C
100
AcDbEntity
  8
0
100
AcDbBlockBegin
  2
RECT
 70
     0
 10
0.0
 20
0.0
 30
0.0
  3
RECT
  1

  0
LWPOLYLINE
  5
39
330
1C
100
AcDbEntity
  8
0
100
AcDbPolyline
 90
        4
 70
     1
 43
0.0
 10
0.0
 20
0.0
 10
1.0
 20
0.0
 10
1.0
 20
1.0
 10
0.0
 20
1.0
  0
ENDBLK
  5
3F
330
1C
100
AcDbEntity
  8
0
100
AcDbBlockEnd
  0
BLOCK
  5
1E5
330
21
100
AcDbEntity
  8
0
100
AcDbBlockBegin
  2
12393
 70
     0
 10
0.0
 20
0.0
 30
0.0
  3
12393
  1

  0
LWPOLYLINE
  5
1E6
330
21
100
AcDbEntity
  8
PAPER
100
AcDbPolyline
 90
        6
 70
     1
 43
0.0
 10
0.4306642771816369
 20
0.4928167194996974
 10
0.1694889343491986
 20
0.4928167194996974
 10
0.1694889343491986
 20
0.406996324339807
 42
0.4142135623730912
 10
0.239367970629761
 20
0.3371172880592399
 10
0.5005433134622073
 20
0.3371172880592399
 10
0.5005433134622073
 20
0.4229376832191305
 42
0.4142135623730912
  0
TEXT
  5
1EE
330
21
100
AcDbEntity
  8
PAPER
100
AcDbText
 10
0.1968389652516827
 20
0.0653685483710036
 30
0.0
 40
0.08
  1
COMPANY
  7
B
100
AcDbText
  0
TEXT
  5
1EF
330
21
100
AcDbEntity
  8
PAPER
100
AcDbText
 10
0.1994274219848929
 20
0.1867646562232728
 30
0.0
 40
0.08
  1
BUILDING PRODUCTS
  7
B
100
AcDbText
  0
LWPOLYLINE
  5
1F0
330
21
100
AcDbEntity
  8
PAPER
100
AcDbPolyline
 90
       18
 70
     1
 43
0.0
 10
0.6765762518365296
 20
0.604111179110729
 10
0.6765762518365296
 20
0.5323750641537762
 10
0.7403416873538186
 20
0.5323750641537762
 10
0.7403416873538186
 20
0.6120818585503898
 42
0.4142135623730951
 10
0.7004882901555131
 20
0.6519352557486967
 10
0.6207814957588976
 20
0.651935255748697
 42
0.4142135623730951
 10
0.5809280985605884
 20
0.6120818585503898
 10
0.5809280985605884
 20
0.4128148725588553
 42
0.4142135623730953
 10
0.6207814957588976
 20
0.3729614753605477
 10
0.7004882901555131
 20
0.3729614753605477
 42
0.4142135623730951
 10
0.7403416873538186
 20
0.4128148725588553
 10
0.7403416873538186
 20
0.4925216669554695
 10
0.6765762518365296
 20
0.4925216669554695
 10
0.6765762518365296
 20
0.4207855519985151
 42
-0.4142135623730969
 10
0.6606348929572074
 20
0.4048441931191929
 42
-0.4142135623730943
 10
0.6446935340778858
 20
0.4207855519985151
 10
0.6446935340778773
 20
0.604111179110729
 42
-0.4142135623730951
 10
0.6606348929572074
 20
0.6200525379900517
 42
-0.4142135623730969
  0
LINE
  5
204
330
21
100
AcDbEntity
  8
PAPER
100
AcDbLine
 10
0.179962485820331
 20
0.5476544388800927
 30
0.0
 11
0.4540157620275672
 21
0.5476544388800927
 31
0.0
  0
LINE
  5
205
330
21
100
AcDbEntity
  8
PAPER
100
AcDbLine
 10
0.179962485820331
 20
0.5534249114501176
 30
0.0
 11
0.4644636791176112
 21
0.5534249114501176
 31
0.0
  0
LINE
  5
206
330
21
100
AcDbEntity
  8
PAPER
100
AcDbLine
 10
0.2082694119570478
 20
0.6688343628506253
 30
0.0
 11
0.4900697619910666
 21
0.6688343628506253
 31
0.0
  0
LINE
  5
207
330
21
100
AcDbEntity
  8
PAPER
100
AcDbLine
 10
0.2004068563776899
 20
0.6630638902805995
 30
0.0
 11
0.4900697619910666
 21
0.6630638902805995
 31
0.0
  0
LINE
  5
208
330
21
100
AcDbEntity
  8
PAPER
100
AcDbLine
 10
0.1946217999705963
 20
0.6572934177105746
 30
0.0
 11
0.4900697619910666
 21
0.6572934177105746
 31
0.0
  0
LINE
  5
209
330
21
100
AcDbEntity
  8
PAPER
100
AcDbLine
 10
0.1901757512634294
 20
0.6515229451405487
 30
0.0
 11
0.4900697619910679
 21
0.6515229451405487
 31
0.0
  0
LINE
  5
20A
330
21
100
AcDbEntity
  8
PAPER
100
AcDbLine
 10
0.1867283240091624
 20
0.6457524725705238
 30
0.0
 11
0.4900697619910666
 21
0.6457524725705238
 31
0.0
  0
LINE
  5
20B
330
21
100
AcDbEntity
  8
PAPER
100
AcDbLine
 10
0.1840923553989955
 20
0.639982000000498
 30
0.0
 11
0.4900697619910679
 21
0.639982000000498
 31
0.0
  0
LINE
  5
20C
330
21
100
AcDbEntity
  8
PAPER
100
AcDbLine
 10
0.1821555753418569
 20
0.634211527430473
 30
0.0
 11
0.4900697619910679
 21
0.634211527430473
 31
0.0
  0
LINE
  5
20D
330
21
100
AcDbEntity
  8
PAPER
100
AcDbLine
 10
0.1808485208488484
 20
0.6284410548604472
 30
0.0
 11
0.4900697619910666
 21
0.6284410548604481
 31
0.0
  0
LINE
  5
20E
330
21
100
AcDbEntity
  8
PAPER
100
AcDbLine
 10
0.1801294939159545
 20
0.6226705822904222
 30
0.0
 11
0.4900697619910666
 21
0.6226705822904222
 31
0.0
  0
LINE
  5
20F
330
21
100
AcDbEntity
  8
PAPER
100
AcDbLine
 10
0.179962485820331
 20
0.6169001097203973
 30
0.0
 11
0.4900697619910666
 21
0.6169001097203973
 31
0.0
  0
LINE
  5
210
330
21
100
AcDbEntity
  8
PAPER
100
AcDbLine
 10
0.179962485820331
 20
0.6111296371503715
 30
0.0
 11
0.4900697619910666
 21
0.6111296371503715
 31
0.0
  0
LINE
  5
211
330
21
100
AcDbEntity
  8
PAPER
100
AcDbLine
 10
0.179962485820331
 20
0.6053591645803456
 30
0.0
 11
0.4900697619910666
 21
0.6053591645803465
 31
0.0
  0
LINE
  5
212
330
21
100
AcDbEntity
  8
PAPER
100
AcDbLine
 10
0.179962485820331
 20
0.5995886920103207
 30
0.0
 11
0.4900088634547457
 21
0.5995886920103207
 31
0.0
  0
LINE
  5
213
330
21
100
AcDbEntity
  8
PAPER
100
AcDbLine
 10
0.179962485820331
 20
0.5938182194402958
 30
0.0
 11
0.489464326944437
 21
0.5938182194402958
 31
0.0
  0
LINE
  5
214
330
21
100
AcDbEntity
  8
PAPER
100
AcDbLine
 10
0.179962485820331
 20
0.5880477468702699
 30
0.0
 11
0.4883402260418935
 21
0.5880477468702699
 31
0.0
  0
LINE
  5
215
330
21
100
AcDbEntity
  8
PAPER
100
AcDbLine
 10
0.179962485820331
 20
0.582277274300245
 30
0.0
 11
0.4866016313770596
 21
0.582277274300245
 31
0.0
  0
LINE
  5
216
330
21
100
AcDbEntity
  8
PAPER
100
AcDbLine
 10
0.179962485820331
 20
0.5765068017302191
 30
0.0
 11
0.4841886959498878
 21
0.57650680173022
 31
0.0
  0
LINE
  5
217
330
21
100
AcDbEntity
  8
PAPER
100
AcDbLine
 10
0.179962485820331
 20
0.5707363291601942
 30
0.0
 11
0.4810045444357528
 21
0.5707363291601942
 31
0.0
  0
LINE
  5
218
330
21
100
AcDbEntity
  8
PAPER
100
AcDbLine
 10
0.179962485820331
 20
0.5649658565901684
 30
0.0
 11
0.476890080609836
 21
0.5649658565901684
 31
0.0
  0
LINE
  5
219
330
21
100
AcDbEntity
  8
PAPER
100
AcDbLine
 10
0.179962485820331
 20
0.5591953840201434
 30
0.0
 11
0.4715655068768332
 21
0.5591953840201434
 31
0.0
  0
LINE
  5
21A
330
21
100
AcDbEntity
  8
PAPER
100
AcDbLine
 10
0.1799624858203297
 20
0.4797017933670292
 30
0.0
 11
0.4481813381384436
 21
0.4797017933670292
 31
0.0
  0
LINE
  5
21B
330
21
100
AcDbEntity
  8
PAPER
100
AcDbLine
 10
0.1799624858203297
 20
0.4739313207970051
 30
0.0
 11
0.4611382095177341
 21
0.4739313207970043
 31
0.0
  0
LINE
  5
21C
330
21
100
AcDbEntity
  8
PAPER
100
AcDbLine
 10
0.1799624858203297
 20
0.4681608482269793
 30
0.0
 11
0.4691854008946813
 21
0.4681608482269793
 31
0.0
  0
LINE
  5
21D
330
21
100
AcDbEntity
  8
PAPER
100
AcDbLine
 10
0.1799624858203297
 20
0.4623903756569535
 30
0.0
 11
0.4750770758420224
 21
0.4623903756569535
 31
0.0
  0
LINE
  5
21E
330
21
100
AcDbEntity
  8
PAPER
100
AcDbLine
 10
0.1799624858203297
 20
0.4566199030869285
 30
0.0
 11
0.479598106893014
 21
0.4566199030869285
 31
0.0
  0
LINE
  5
21F
330
21
100
AcDbEntity
  8
PAPER
100
AcDbLine
 10
0.1799624858203297
 20
0.4508494305169027
 30
0.0
 11
0.4831042046055581
 21
0.4508494305169027
 31
0.0
  0
LINE
  5
220
330
21
100
AcDbEntity
  8
PAPER
100
AcDbLine
 10
0.1799624858203297
 20
0.4450789579468778
 30
0.0
 11
0.485789367466116
 21
0.4450789579468778
 31
0.0
  0
LINE
  5
221
330
21
100
AcDbEntity
  8
PAPER
100
AcDbLine
 10
0.1799624858203297
 20
0.4393084853768519
 30
0.0
 11
0.4877695174154331
 21
0.4393084853768519
 31
0.0
  0
LINE
  5
222
330
21
100
AcDbEntity
  8
PAPER
100
AcDbLine
 10
0.1799624858203297
 20
0.433538012806827
 30
0.0
 11
0.4891163484715177
 21
0.433538012806827
 31
0.0
  0
LINE
  5
223
330
21
100
AcDbEntity
  8
PAPER
100
AcDbLine
 10
0.1799624858203297
 20
0.4277675402368021
 30
0.0
 11
0.4898730949931477
 21
0.4277675402368021
 31
0.0
  0
LINE
  5
224
330
21
100
AcDbEntity
  8
PAPER
100
AcDbLine
 10
0.1799624858203297
 20
0.4219970676667762
 30
0.0
 11
0.4900697619910666
 21
0.4219970676667762
 31
0.0
  0
LINE
  5
225
330
21
100
AcDbEntity
  8
PAPER
100
AcDbLine
 10
0.1799624858203297
 20
0.4162265950967513
 30
0.0
 11
0.4900697619910666
 21
0.4162265950967513
 31
0.0
  0
LINE
  5
226
330
21
100
AcDbEntity
  8
PAPER
100
AcDbLine
 10
0.1799624858203297
 20
0.4104561225267254
 30
0.0
 11
0.4900697619910666
 21
0.4104561225267254
 31
0.0
  0
LINE
  5
227
330
21
100
AcDbEntity
  8
PAPER
100
AcDbLine
 10
0.1800074415777251
 20
0.4046856499567005
 30
0.0
 11
0.4900697619910661
 21
0.4046856499567005
 31
0.0
  0
LINE
  5
228
330
21
100
AcDbEntity
  8
PAPER
100
AcDbLine
 10
0.1805147065795245
 20
0.3989151773866746
 30
0.0
 11
0.4900697619910661
 21
0.3989151773866746
 31
0.0
  0
LINE
  5
229
330
21
100
AcDbEntity
  8
PAPER
100
AcDbLine
 10
0.1815999495278901
 20
0.3931447048166496
 30
0.0
 11
0.4900697619910666
 21
0.3931447048166496
 31
0.0
  0
LINE
  5
22A
330
21
100
AcDbEntity
  8
PAPER
100
AcDbLine
 10
0.1832967201770794
 20
0.3873742322466238
 30
0.0
 11
0.4900697619910666
 21
0.3873742322466238
 31
0.0
  0
LINE
  5
22B
330
21
100
AcDbEntity
  8
PAPER
100
AcDbLine
 10
0.1856629495863802
 20
0.3816037596765989
 30
0.0
 11
0.4900697619910666
 21
0.3816037596765989
 31
0.0
  0
LINE
  5
22C
330
21
100
AcDbEntity
  8
PAPER
100
AcDbLine
 10
0.1887925147658442
 20
0.375833287106573
 30
0.0
 11
0.4900697619910679
 21
0.375833287106573
 31
0.0
  0
LINE
  5
22D
330
21
100
AcDbEntity
  8
PAPER
100
AcDbLine
 10
0.1928391894394334
 20
0.3700628145365481
 30
0.0
 11
0.4900697619910666
 21
0.3700628145365481
 31
0.0
  0
LINE
  5
22E
330
21
100
AcDbEntity
  8
PAPER
100
AcDbLine
 10
0.1980717054850516
 20
0.3642923419665223
 30
0.0
 11
0.4900697619910661
 21
0.3642923419665223
 31
0.0
  0
LINE
  5
22F
330
21
100
AcDbEntity
  8
PAPER
100
AcDbLine
 10
0.2050279234051501
 20
0.3585218693964973
 30
0.0
 11
0.4900697619910661
 21
0.3585218693964973
 31
0.0
  0
LWPOLYLINE
  5
230
330
21
100
AcDbEntity
  8
PAPER
100
AcDbPolyline
 90
        6
 70
     1
 43
0.0
 10
0.5005433134622073
 20
0.602277875067701
 42
-0.4142135623730912
 10
0.4306642771816369
 20
0.5323988387871342
 10
0.1694889343491986
 20
0.5323988387871348
 10
0.1694889343491986
 20
0.6182192339470243
 42
-0.4142135623730912
 10
0.239367970629761
 20
0.6880982702275914
 10
0.5005433134622073
 20
0.6880982702275917
  0
LWPOLYLINE
  5
238
330
21
100
AcDbEntity
  8
PAPER
100
AcDbPolyline
 90
        6
 70
     1
 43
0.0
 10
0.4306642771816369
 20
0.4823431680285597
 10
0.1799624858203308
 20
0.4823431680285597
 10
0.1799624858203308
 20
0.406996324339807
 42
0.4142135623730903
 10
0.239367970629761
 20
0.3475908395303771
 10
0.4900697619910668
 20
0.3475908395303771
 10
0.4900697619910668
 20
0.4229376832191305
 42
0.4142135623730933
  0
LWPOLYLINE
  5
240
330
21
100
AcDbEntity
  8
PAPER
100
AcDbPolyline
 90
        6
 70
     1
 43
0.0
 10
0.4900697619910668
 20
0.602277875067701
 42
-0.4142135623730941
 10
0.4306642771816369
 20
0.5428723902582718
 10
0.1799624858203308
 20
0.5428723902582722
 10
0.1799624858203308
 20
0.6182192339470243
 42
-0.4142135623730911
 10
0.239367970629761
 20
0.6776247187564537
 10
0.4900697619910668
 20
0.677624718756454
  0
LINE
  5
248
330
21
100
AcDbEntity
  8
PAPER
100
AcDbLine
 10
0.2206683564119276
 20
0.6746048354206503
 30
0.0
 11
0.4900697619910666
 21
0.6746048354206503
 31
0.0
  0
LINE
  5
249
330
21
100
AcDbEntity
  8
PAPER
100
AcDbLine
 10
0.2151502196087309
 20
0.3527513968264715
 30
0.0
 11
0.4900697619910666
 21
0.3527513968264715
 31
0.0
  0
LINE
  5
24A
330
21
100
AcDbEntity
  8
PAPER
100
AcDbLine
 10
0.6993060123198396
 20
0.5323750641537764
 30
0.0
 11
0.6993060123198396
 21
0.6519352557486967
 31
0.0
  0
LINE
  5
24B
330
21
100
AcDbEntity
  8
PAPER
100
AcDbLine
 10
0.6819945946097639
 20
0.5323750641537764
 30
0.0
 11
0.6819945946097639
 21
0.6519352557486967
 31
0.0
  0
LINE
  5
24C
330
21
100
AcDbEntity
  8
PAPER
100
AcDbLine
 10
0.6935355397498143
 20
0.5323750641537764
 30
0.0
 11
0.6935355397498143
 21
0.6519352557486967
 31
0.0
  0
LINE
  5
24D
330
21
100
AcDbEntity
  8
PAPER
100
AcDbLine
 10
0.687765067179787
 20
0.5323750641537764
 30
0.0
 11
0.6877650671797884
 21
0.6519352557486967
 31
0.0
  0
LINE
  5
24E
330
21
100
AcDbEntity
  8
PAPER
100
AcDbLine
 10
0.6762241220397389
 20
0.6074432744763766
 30
0.0
 11
0.6762241220397389
 21
0.6519352557486967
 31
0.0
  0
LINE
  5
24F
330
21
100
AcDbEntity
  8
PAPER
100
AcDbLine
 10
0.6704536494697131
 20
0.6166697993956756
 30
0.0
 11
0.6704536494697131
 21
0.6519352557486967
 31
0.0
  0
LINE
  5
250
330
21
100
AcDbEntity
  8
PAPER
100
AcDbLine
 10
0.6646831768996873
 20
0.6195299443023499
 30
0.0
 11
0.6646831768996873
 21
0.6519352557486967
 31
0.0
  0
LINE
  5
251
330
21
100
AcDbEntity
  8
PAPER
100
AcDbLine
 10
0.6473717591896115
 20
0.6129551717373801
 30
0.0
 11
0.6473717591896115
 21
0.6519352557486967
 31
0.0
  0
LINE
  5
252
330
21
100
AcDbEntity
  8
PAPER
100
AcDbLine
 10
0.6531422317596383
 20
0.6181819627099408
 30
0.0
 11
0.6531422317596379
 21
0.6519352557486967
 31
0.0
  0
LINE
  5
253
330
21
100
AcDbEntity
  8
PAPER
100
AcDbLine
 10
0.6589127043296611
 20
0.6199592385896827
 30
0.0
 11
0.6589127043296611
 21
0.6519352557486967
 31
0.0
  0
LINE
  5
254
330
21
100
AcDbEntity
  8
PAPER
100
AcDbLine
 10
0.6993060123198396
 20
0.3729614753605472
 30
0.0
 11
0.6993060123198396
 21
0.4925216669554694
 31
0.0
  0
LINE
  5
255
330
21
100
AcDbEntity
  8
PAPER
100
AcDbLine
 10
0.6935355397498155
 20
0.3729614753605472
 30
0.0
 11
0.6935355397498143
 21
0.4925216669554694
 31
0.0
  0
LINE
  5
256
330
21
100
AcDbEntity
  8
PAPER
100
AcDbLine
 10
0.687765067179787
 20
0.3729614753605472
 30
0.0
 11
0.687765067179787
 21
0.4925216669554694
 31
0.0
  0
LINE
  5
257
330
21
100
AcDbEntity
  8
PAPER
100
AcDbLine
 10
0.6819945946097639
 20
0.3729614753605472
 30
0.0
 11
0.6819945946097639
 21
0.4925216669554694
 31
0.0
  0
LINE
  5
258
330
21
100
AcDbEntity
  8
PAPER
100
AcDbLine
 10
0.6762241220397398
 20
0.3729614753605472
 30
0.0
 11
0.6762241220397398
 21
0.4174534566320139
 31
0.0
  0
LINE
  5
259
330
21
100
AcDbEntity
  8
PAPER
100
AcDbLine
 10
0.6704536494697131
 20
0.3729614753605472
 30
0.0
 11
0.6704536494697131
 21
0.4082269317133357
 31
0.0
  0
LINE
  5
25A
330
21
100
AcDbEntity
  8
PAPER
100
AcDbLine
 10
0.6646831768996873
 20
0.3729614753605472
 30
0.0
 11
0.6646831768996873
 21
0.4053667868067049
 31
0.0
  0
LINE
  5
25B
330
21
100
AcDbEntity
  8
PAPER
100
AcDbLine
 10
0.658912704329662
 20
0.3729614753605472
 30
0.0
 11
0.658912704329662
 21
0.4049374925195134
 31
0.0
  0
LINE
  5
25C
330
21
100
AcDbEntity
  8
PAPER
100
AcDbLine
 10
0.6531422317596379
 20
0.3729614753605472
 30
0.0
 11
0.6531422317596383
 21
0.4067147683992561
 31
0.0
  0
LINE
  5
25D
330
21
100
AcDbEntity
  8
PAPER
100
AcDbLine
 10
0.6473717591896115
 20
0.3729614753605472
 30
0.0
 11
0.6473717591896115
 21
0.4119415593717804
 31
0.0
  0
LINE
  5
25E
330
21
100
AcDbEntity
  8
PAPER
100
AcDbLine
 10
0.6416012866195871
 20
0.3729614753605472
 30
0.0
 11
0.6416012866195857
 21
0.6519352557486967
 31
0.0
  0
LINE
  5
25F
330
21
100
AcDbEntity
  8
PAPER
100
AcDbLine
 10
0.6358308140495599
 20
0.3729614753605472
 30
0.0
 11
0.6358308140495604
 21
0.6519352557486967
 31
0.0
  0
LINE
  5
260
330
21
100
AcDbEntity
  8
PAPER
100
AcDbLine
 10
0.6300603414795355
 20
0.3729614753605472
 30
0.0
 11
0.6300603414795355
 21
0.6519352557486967
 31
0.0
  0
LINE
  5
261
330
21
100
AcDbEntity
  8
PAPER
100
AcDbLine
 10
0.6242898689095091
 20
0.3729614753605472
 30
0.0
 11
0.6242898689095091
 21
0.6519352557486967
 31
0.0
  0
LINE
  5
262
330
21
100
AcDbEntity
  8
PAPER
100
AcDbLine
 10
0.6185193963394847
 20
0.3730257261183592
 30
0.0
 11
0.6185193963394847
 21
0.6518710049910207
 31
0.0
  0
LINE
  5
263
330
21
100
AcDbEntity
  8
PAPER
100
AcDbLine
 10
0.6127489237694597
 20
0.3737793623728576
 30
0.0
 11
0.6127489237694597
 21
0.6511173687364645
 31
0.0
  0
LINE
  5
264
330
21
100
AcDbEntity
  8
PAPER
100
AcDbLine
 10
0.6069784511994339
 20
0.3754281205050043
 30
0.0
 11
0.6069784511994339
 21
0.6494686106042734
 31
0.0
  0
LINE
  5
265
330
21
100
AcDbEntity
  8
PAPER
100
AcDbLine
 10
0.6012079786294072
 20
0.3780993040710958
 30
0.0
 11
0.6012079786294081
 21
0.6467974270381588
 31
0.0
  0
LINE
  5
266
330
21
100
AcDbEntity
  8
PAPER
100
AcDbLine
 10
0.5954375060593826
 20
0.3820581585868197
 30
0.0
 11
0.5954375060593826
 21
0.6428385725224802
 31
0.0
  0
LINE
  5
267
330
21
100
AcDbEntity
  8
PAPER
100
AcDbLine
 10
0.5896670334893591
 20
0.3879113887478656
 30
0.0
 11
0.5896670334893591
 21
0.6369853423614174
 31
0.0
  0
LINE
  5
268
330
21
100
AcDbEntity
  8
PAPER
100
AcDbLine
 10
0.5838965609193315
 20
0.3977219984081894
 30
0.0
 11
0.5838965609193327
 21
0.6271747327012845
 31
0.0
  0
LWPOLYLINE
  5
269
330
21
100
AcDbEntity
  8
PAPER
100
AcDbPolyline
 90
        5
 70
     0
 43
0.0
 10
0.9134655158037315
 20
0.5048096616906559
 42
-1.00459822107278
 10
0.9453475625419073
 20
0.5049559268813409
 10
0.9453475625419073
 20
0.4207855519985151
 42
-0.9999999999999996
 10
0.9134648447832638
 20
0.4207855519985151
 10
0.9134648447832638
 20
0.5049559268813409
  0
LWPOLYLINE
  5
270
330
21
100
AcDbEntity
  8
PAPER
100
AcDbPolyline
 90
        8
 70
     1
 43
0.0
 10
1.009112998059204
 20
0.5129266063210024
 10
1.009112998059204
 20
0.4128148725588541
 42
-0.4142135623730951
 10
0.9692596008608955
 20
0.3729614753605477
 10
0.8895528064642801
 20
0.3729614753605477
 42
-0.4142135623730951
 10
0.8496994092659749
 20
0.4128148725588544
 10
0.8496994092659699
 20
0.5129266063210024
 42
-0.4142135623730951
 10
0.8895528064642801
 20
0.5527800035193087
 10
0.9692596008608955
 20
0.5527800035193087
 42
-0.4142135623730951
  0
LINE
  5
27A
330
21
100
AcDbEntity
  8
PAPER
100
AcDbLine
 10
0.7396993203100186
 20
0.5323750641537764
 30
0.0
 11
0.7396993203100183
 21
0.6192084553866451
 31
0.0
  0
LINE
  5
27B
330
21
100
AcDbEntity
  8
PAPER
100
AcDbLine
 10
0.7339288477399933
 20
0.5323750641537764
 30
0.0
 11
0.7339288477399919
 21
0.6337618580126446
 31
0.0
  0
LINE
  5
27C
330
21
100
AcDbEntity
  8
PAPER
100
AcDbLine
 10
0.7281583751699661
 20
0.5323750641537764
 30
0.0
 11
0.7281583751699661
 21
0.6407639028210291
 31
0.0
  0
LINE
  5
27D
330
21
100
AcDbEntity
  8
PAPER
100
AcDbLine
 10
0.7108469574598882
 20
0.5323750641537764
 30
0.0
 11
0.7108469574598909
 21
0.6505655080645008
 31
0.0
  0
LINE
  5
27E
330
21
100
AcDbEntity
  8
PAPER
100
AcDbLine
 10
0.7223879025999402
 20
0.5323750641537764
 30
0.0
 11
0.7223879025999408
 21
0.6453790092247925
 31
0.0
  0
LINE
  5
27F
330
21
100
AcDbEntity
  8
PAPER
100
AcDbLine
 10
0.7166174300299153
 20
0.5323750641537764
 30
0.0
 11
0.7166174300299153
 21
0.6485255701500135
 31
0.0
  0
LINE
  5
280
330
21
100
AcDbEntity
  8
PAPER
100
AcDbLine
 10
0.7050764848898645
 20
0.5323750641537764
 30
0.0
 11
0.7050764848898645
 21
0.6516702626268386
 31
0.0
  0
LINE
  5
281
330
21
100
AcDbEntity
  8
PAPER
100
AcDbLine
 10
0.8147154637203451
 20
0.3729614753605481
 30
0.0
 11
0.814715463720346
 21
0.6522540829262836
 31
0.0
  0
LINE
  5
282
330
21
100
AcDbEntity
  8
PAPER
100
AcDbLine
 10
0.8089449911503201
 20
0.3729614753605481
 30
0.0
 11
0.8089449911503201
 21
0.6522540829262836
 31
0.0
  0
LINE
  5
283
330
21
100
AcDbEntity
  8
PAPER
100
AcDbLine
 10
0.803174518580297
 20
0.3729614753605481
 30
0.0
 11
0.803174518580297
 21
0.6522540829262836
 31
0.0
  0
LINE
  5
284
330
21
100
AcDbEntity
  8
PAPER
100
AcDbLine
 10
0.7974040460102698
 20
0.3729614753605481
 30
0.0
 11
0.7974040460102712
 21
0.6522540829262836
 31
0.0
  0
LINE
  5
285
330
21
100
AcDbEntity
  8
PAPER
100
AcDbLine
 10
0.7916335734402445
 20
0.3729614753605481
 30
0.0
 11
0.7916335734402454
 21
0.6522540829262836
 31
0.0
  0
LINE
  5
286
330
21
100
AcDbEntity
  8
PAPER
100
AcDbLine
 10
0.7858631008702199
 20
0.3729614753605481
 30
0.0
 11
0.7858631008702199
 21
0.6522540829262836
 31
0.0
  0
LINE
  5
287
330
21
100
AcDbEntity
  8
PAPER
100
AcDbLine
 10
0.7800926283001946
 20
0.3729614753605481
 30
0.0
 11
0.7800926283001946
 21
0.6522540829262836
 31
0.0
  0
LINE
  5
288
330
21
100
AcDbEntity
  8
PAPER
100
AcDbLine
 10
0.774322155730167
 20
0.3729614753605481
 30
0.0
 11
0.7743221557301683
 21
0.6522540829262836
 31
0.0
  0
LINE
  5
289
330
21
100
AcDbEntity
  8
PAPER
100
AcDbLine
 10
0.7396993203100183
 20
0.4056882757221059
 30
0.0
 11
0.7396993203100186
 21
0.4925216669554694
 31
0.0
  0
LINE
  5
28A
330
21
100
AcDbEntity
  8
PAPER
100
AcDbLine
 10
0.7339288477399919
 20
0.3911348730964466
 30
0.0
 11
0.7339288477399933
 21
0.4925216669554694
 31
0.0
  0
LINE
  5
28B
330
21
100
AcDbEntity
  8
PAPER
100
AcDbLine
 10
0.7281583751699675
 20
0.3841328282881988
 30
0.0
 11
0.7281583751699675
 21
0.4925216669554694
 31
0.0
  0
LINE
  5
28C
330
21
100
AcDbEntity
  8
PAPER
100
AcDbLine
 10
0.7223879025999408
 20
0.3795177218844346
 30
0.0
 11
0.7223879025999402
 21
0.4925216669554694
 31
0.0
  0
LINE
  5
28D
330
21
100
AcDbEntity
  8
PAPER
100
AcDbLine
 10
0.7166174300299153
 20
0.3763711609591451
 30
0.0
 11
0.7166174300299153
 21
0.4925216669554694
 31
0.0
  0
LINE
  5
28E
330
21
100
AcDbEntity
  8
PAPER
100
AcDbLine
 10
0.7108469574598895
 20
0.3743312230446996
 30
0.0
 11
0.7108469574598882
 21
0.4925216669554694
 31
0.0
  0
LINE
  5
28F
330
21
100
AcDbEntity
  8
PAPER
100
AcDbLine
 10
0.7050764848898645
 20
0.3732264684822713
 30
0.0
 11
0.7050764848898645
 21
0.4925216669554694
 31
0.0
  0
LWPOLYLINE
  5
290
330
21
100
AcDbEntity
  8
PAPER
100
AcDbPolyline
 90
        4
 70
     1
 43
0.0
 10
0.7703114420469431
 20
0.6522540829262833
 10
0.820048481750431
 20
0.6522540829262833
 10
0.820048481750431
 20
0.3729614753605477
 10
0.7703114420469431
 20
0.3729614753605477
  0
LINE
  5
296
330
21
100
AcDbEntity
  8
PAPER
100
AcDbLine
 10
0.9416658602609027
 20
0.5151455168146607
 30
0.0
 11
0.9416658602609027
 21
0.5527800035193094
 31
0.0
  0
LINE
  5
297
330
21
100
AcDbEntity
  8
PAPER
100
AcDbLine
 10
0.9358953876908786
 20
0.5195167446319065
 30
0.0
 11
0.9358953876908781
 21
0.5527800035193094
 31
0.0
  0
LINE
  5
298
330
21
100
AcDbEntity
  8
PAPER
100
AcDbLine
 10
0.9185839699808029
 20
0.5166608908306677
 30
0.0
 11
0.9185839699808029
 21
0.5527800035193094
 31
0.0
  0
LINE
  5
299
330
21
100
AcDbEntity
  8
PAPER
100
AcDbLine
 10
0.9243544425508279
 20
0.5200756700202874
 30
0.0
 11
0.9243544425508279
 21
0.5527800035193094
 31
0.0
  0
LINE
  5
29A
330
21
100
AcDbEntity
  8
PAPER
100
AcDbLine
 10
0.9301249151208546
 20
0.5208810760724088
 30
0.0
 11
0.9301249151208532
 21
0.5527800035193094
 31
0.0
  0
LINE
  5
29B
330
21
100
AcDbEntity
  8
PAPER
100
AcDbLine
 10
0.9416658602609027
 20
0.3729614753605472
 30
0.0
 11
0.9416658602609027
 21
0.4105959620656775
 31
0.0
  0
LINE
  5
29C
330
21
100
AcDbEntity
  8
PAPER
100
AcDbLine
 10
0.9358953876908786
 20
0.3729614753605472
 30
0.0
 11
0.9358953876908786
 21
0.4062247342482993
 31
0.0
  0
LINE
  5
29D
330
21
100
AcDbEntity
  8
PAPER
100
AcDbLine
 10
0.9301249151208532
 20
0.3729614753605472
 30
0.0
 11
0.9301249151208546
 21
0.4048604028077668
 31
0.0
  0
LINE
  5
29E
330
21
100
AcDbEntity
  8
PAPER
100
AcDbLine
 10
0.9243544425508279
 20
0.3729614753605472
 30
0.0
 11
0.9243544425508279
 21
0.4056658088599051
 31
0.0
  0
LINE
  5
29F
330
21
100
AcDbEntity
  8
PAPER
100
AcDbLine
 10
0.9185839699808029
 20
0.3729614753605472
 30
0.0
 11
0.9185839699808029
 21
0.4090805880496243
 31
0.0
  0
LINE
  5
2A0
330
21
100
AcDbEntity
  8
PAPER
100
AcDbLine
 10
0.9128134974107775
 20
0.3729614753605472
 30
0.0
 11
0.9128134974107771
 21
0.5527800035193094
 31
0.0
  0
LINE
  5
2A1
330
21
100
AcDbEntity
  8
PAPER
100
AcDbLine
 10
0.9070430248407534
 20
0.3729614753605472
 30
0.0
 11
0.9070430248407522
 21
0.5527800035193094
 31
0.0
  0
LINE
  5
2A2
330
21
100
AcDbEntity
  8
PAPER
100
AcDbLine
 10
0.9012725522707249
 20
0.3729614753605472
 30
0.0
 11
0.9012725522707249
 21
0.5527800035193094
 31
0.0
  0
LINE
  5
2A3
330
21
100
AcDbEntity
  8
PAPER
100
AcDbLine
 10
0.8955020797007009
 20
0.3729614753605472
 30
0.0
 11
0.8955020797007009
 21
0.5527800035193094
 31
0.0
  0
LINE
  5
2A4
330
21
100
AcDbEntity
  8
PAPER
100
AcDbLine
 10
0.8897316071306756
 20
0.3729614753605472
 30
0.0
 11
0.8897316071306756
 21
0.5527800035193094
 31
0.0
  0
LINE
  5
2A5
330
21
100
AcDbEntity
  8
PAPER
100
AcDbLine
 10
0.883961134560651
 20
0.373355697788363
 30
0.0
 11
0.883961134560651
 21
0.5523857810915257
 31
0.0
  0
LINE
  5
2A6
330
21
100
AcDbEntity
  8
PAPER
100
AcDbLine
 10
0.8781906619906251
 20
0.3746154623381999
 30
0.0
 11
0.8781906619906251
 21
0.5511260165416044
 31
0.0
  0
LINE
  5
2A7
330
21
100
AcDbEntity
  8
PAPER
100
AcDbLine
 10
0.8724201894205998
 20
0.3768320057820051
 30
0.0
 11
0.8724201894205998
 21
0.548909473097887
 31
0.0
  0
LINE
  5
2A8
330
21
100
AcDbEntity
  8
PAPER
100
AcDbLine
 10
0.8666497168505731
 20
0.3801998184520083
 30
0.0
 11
0.8666497168505731
 21
0.5455416604278936
 31
0.0
  0
LINE
  5
2A9
330
21
100
AcDbEntity
  8
PAPER
100
AcDbLine
 10
0.8608792442805494
 20
0.3851359979440543
 30
0.0
 11
0.8608792442805494
 21
0.5406054809358628
 31
0.0
  0
LINE
  5
2AA
330
21
100
AcDbEntity
  8
PAPER
100
AcDbLine
 10
0.855108771710525
 20
0.3927673854812139
 30
0.0
 11
0.8551087717105241
 21
0.5329740933985264
 31
0.0
  0
LINE
  5
2AB
330
21
100
AcDbEntity
  8
PAPER
100
AcDbLine
 10
1.085927674511538
 20
0.3133407931518792
 30
0.0
 11
1.085927674511537
 21
0.5527800035193094
 31
0.0
  0
LINE
  5
2AC
330
21
100
AcDbEntity
  8
PAPER
100
AcDbLine
 10
1.080157201941511
 20
0.3133407931518792
 30
0.0
 11
1.080157201941512
 21
0.5527800035193094
 31
0.0
  0
LINE
  5
2AD
330
21
100
AcDbEntity
  8
PAPER
100
AcDbLine
 10
1.074386729371487
 20
0.3133407931518792
 30
0.0
 11
1.074386729371486
 21
0.5527800035193094
 31
0.0
  0
LINE
  5
2AE
330
21
100
AcDbEntity
  8
PAPER
100
AcDbLine
 10
1.068616256801463
 20
0.3133407931518792
 30
0.0
 11
1.068616256801462
 21
0.5527800035193094
 31
0.0
  0
LINE
  5
2AF
330
21
100
AcDbEntity
  8
PAPER
100
AcDbLine
 10
1.062845784231436
 20
0.3133407931518792
 30
0.0
 11
1.062845784231436
 21
0.5527800035193094
 31
0.0
  0
LINE
  5
2B0
330
21
100
AcDbEntity
  8
PAPER
100
AcDbLine
 10
1.057075311661411
 20
0.3133407931518792
 30
0.0
 11
1.057075311661411
 21
0.5527800035193094
 31
0.0
  0
LINE
  5
2B1
330
21
100
AcDbEntity
  8
PAPER
100
AcDbLine
 10
1.051304839091385
 20
0.3133407931518792
 30
0.0
 11
1.051304839091385
 21
0.5527800035193094
 31
0.0
  0
LINE
  5
2B2
330
21
100
AcDbEntity
  8
PAPER
100
AcDbLine
 10
1.045534366521361
 20
0.3133407931518792
 30
0.0
 11
1.045534366521359
 21
0.5527800035193094
 31
0.0
  0
LINE
  5
2B3
330
21
100
AcDbEntity
  8
PAPER
100
AcDbLine
 10
1.039763893951335
 20
0.3133407931518792
 30
0.0
 11
1.039763893951334
 21
0.5527800035193094
 31
0.0
  0
LWPOLYLINE
  5
2B4
330
21
100
AcDbEntity
  8
PAPER
100
AcDbPolyline
 90
       14
 70
     1
 43
0.0
 10
1.038763925574744
 20
0.5527800035193087
 10
1.03876392557474
 20
0.3133407931518795
 10
1.089379855288469
 20
0.3133407931518795
 10
1.089379855288469
 20
0.3852569655925058
 10
1.092510514459754
 20
0.3827513008486167
 42
0.1813224577874149
 10
1.120383683036873
 20
0.3736313603814156
 10
1.130267325542051
 20
0.3729614753605477
 42
0.4544349447676743
 10
1.170120722740361
 20
0.4128148725588541
 10
1.170120722740361
 20
0.5129266063210015
 42
0.4142135623730878
 10
1.130267325542051
 20
0.5527800035193083
 10
1.120383683036876
 20
0.5527800035193087
 42
0.085164233175497
 10
1.104442324157559
 20
0.5500448987409083
 42
0.0977825579206252
 10
1.088500965278228
 20
0.5406018889892099
 10
1.088500965278228
 20
0.5527800035193087
  0
LINE
  5
2C4
330
21
100
AcDbEntity
  8
PAPER
100
AcDbLine
 10
1.005141058531182
 20
0.3954708746429467
 30
0.0
 11
1.005141058531182
 21
0.5302706042367225
 31
0.0
  0
LINE
  5
2C5
330
21
100
AcDbEntity
  8
PAPER
100
AcDbLine
 10
0.9993705859611578
 20
0.3867069840087784
 30
0.0
 11
0.9993705859611578
 21
0.5390344948709885
 31
0.0
  0
LINE
  5
2C6
330
21
100
AcDbEntity
  8
PAPER
100
AcDbLine
 10
0.9936001133911329
 20
0.3812580552602627
 30
0.0
 11
0.9936001133911325
 21
0.544483423619665
 31
0.0
  0
LINE
  5
2C7
330
21
100
AcDbEntity
  8
PAPER
100
AcDbLine
 10
0.9878296408211067
 20
0.3775523303344543
 30
0.0
 11
0.9878296408211067
 21
0.5481891485453721
 31
0.0
  0
LINE
  5
2C8
330
21
100
AcDbEntity
  8
PAPER
100
AcDbLine
 10
0.982059168251083
 20
0.3750727960013103
 30
0.0
 11
0.9820591682510817
 21
0.5506686828785757
 31
0.0
  0
LINE
  5
2C9
330
21
100
AcDbEntity
  8
PAPER
100
AcDbLine
 10
0.9762886956810554
 20
0.3735862466045752
 30
0.0
 11
0.9762886956810554
 21
0.5521552322751651
 31
0.0
  0
LINE
  5
2CA
330
21
100
AcDbEntity
  8
PAPER
100
AcDbLine
 10
0.9705182231110313
 20
0.3729813547844605
 30
0.0
 11
0.9705182231110313
 21
0.552760124095406
 31
0.0
  0
LINE
  5
2CB
330
21
100
AcDbEntity
  8
PAPER
100
AcDbLine
 10
0.9647477505410051
 20
0.3729614753605472
 30
0.0
 11
0.9647477505410051
 21
0.5527800035193094
 31
0.0
  0
LINE
  5
2CC
330
21
100
AcDbEntity
  8
PAPER
100
AcDbLine
 10
0.9589772779709806
 20
0.3729614753605472
 30
0.0
 11
0.9589772779709793
 21
0.5527800035193094
 31
0.0
  0
LINE
  5
2CD
330
21
100
AcDbEntity
  8
PAPER
100
AcDbLine
 10
0.9532068054009556
 20
0.3729614753605472
 30
0.0
 11
0.9532068054009556
 21
0.5527800035193094
 31
0.0
  0
LINE
  5
2CE
330
21
100
AcDbEntity
  8
PAPER
100
AcDbLine
 10
0.9474363328309298
 20
0.3729614753605472
 30
0.0
 11
0.9474363328309298
 21
0.5527800035193094
 31
0.0
  0
LINE
  5
2CF
330
21
100
AcDbEntity
  8
PAPER
100
AcDbLine
 10
1.114780037361662
 20
0.5062165957140559
 30
0.0
 11
1.114780037361662
 21
0.5524505735420105
 31
0.0
  0
LINE
  5
2D0
330
21
100
AcDbEntity
  8
PAPER
100
AcDbLine
 10
1.103239092221613
 20
0.5136216100974148
 30
0.0
 11
1.103239092221613
 21
0.5496012548793717
 31
0.0
  0
LINE
  5
2D1
330
21
100
AcDbEntity
  8
PAPER
100
AcDbLine
 10
1.109009564791637
 20
0.5120051728320288
 30
0.0
 11
1.109009564791638
 21
0.5514077485938954
 31
0.0
  0
LINE
  5
2D2
330
21
100
AcDbEntity
  8
PAPER
100
AcDbLine
 10
1.091698147081564
 20
0.5085818423503062
 30
0.0
 11
1.091698147081564
 21
0.543221869091571
 31
0.0
  0
LINE
  5
2D3
330
21
100
AcDbEntity
  8
PAPER
100
AcDbLine
 10
1.09746861965159
 20
0.5127242929656618
 30
0.0
 11
1.097468619651589
 21
0.5469326129858912
 31
0.0
  0
LINE
  5
2D4
330
21
100
AcDbEntity
  8
PAPER
100
AcDbLine
 10
1.166714290491893
 20
0.3945030082581915
 30
0.0
 11
1.166714290491893
 21
0.5290483932627267
 31
0.0
  0
LINE
  5
2D5
330
21
100
AcDbEntity
  8
PAPER
100
AcDbLine
 10
1.160943817921867
 20
0.3856434272371085
 30
0.0
 11
1.160943817921867
 21
0.5383676378157574
 31
0.0
  0
LINE
  5
2D6
330
21
100
AcDbEntity
  8
PAPER
100
AcDbLine
 10
1.155173345351841
 20
0.3803058821927008
 30
0.0
 11
1.155173345351842
 21
0.5440390386509629
 31
0.0
  0
LINE
  5
2D7
330
21
100
AcDbEntity
  8
PAPER
100
AcDbLine
 10
1.149402872781816
 20
0.3767634869824137
 30
0.0
 11
1.149402872781816
 21
0.5478854978949615
 31
0.0
  0
LINE
  5
2D8
330
21
100
AcDbEntity
  8
PAPER
100
AcDbLine
 10
1.143632400211791
 20
0.3744794151308122
 30
0.0
 11
1.143632400211791
 21
0.550472152625712
 31
0.0
  0
LINE
  5
2D9
330
21
100
AcDbEntity
  8
PAPER
100
AcDbLine
 10
1.137861927641765
 20
0.3732203046739746
 30
0.0
 11
1.137861927641765
 21
0.5520496850240305
 31
0.0
  0
LINE
  5
2DA
330
21
100
AcDbEntity
  8
PAPER
100
AcDbLine
 10
1.13209145507174
 20
0.3728825001730855
 30
0.0
 11
1.13209145507174
 21
0.5527382355228115
 31
0.0
  0
LINE
  5
2DB
330
21
100
AcDbEntity
  8
PAPER
100
AcDbLine
 10
1.126320982501715
 20
0.3732289472049153
 30
0.0
 11
1.126320982501715
 21
0.5527800035193085
 31
0.0
  0
LINE
  5
2DC
330
21
100
AcDbEntity
  8
PAPER
100
AcDbLine
 10
1.12055050993169
 20
0.3736200533316258
 30
0.0
 11
1.12055050993169
 21
0.5527800035193085
 31
0.0
  0
LINE
  5
2DD
330
21
100
AcDbEntity
  8
PAPER
100
AcDbLine
 10
1.114780037361662
 20
0.3737693774901458
 30
0.0
 11
1.114780037361662
 21
0.4195248831656978
 31
0.0
  0
LINE
  5
2DE
330
21
100
AcDbEntity
  8
PAPER
100
AcDbLine
 10
1.109009564791638
 20
0.374711492745728
 30
0.0
 11
1.109009564791637
 21
0.413736306047788
 31
0.0
  0
LINE
  5
2DF
330
21
100
AcDbEntity
  8
PAPER
100
AcDbLine
 10
1.103239092221613
 20
0.3765241585887995
 30
0.0
 11
1.103239092221613
 21
0.4121198687824064
 31
0.0
  0
LINE
  5
2E0
330
21
100
AcDbEntity
  8
PAPER
100
AcDbLine
 10
1.097468619651589
 20
0.3793385658356045
 30
0.0
 11
1.09746861965159
 21
0.4130171859141426
 31
0.0
  0
LINE
  5
2E1
330
21
100
AcDbEntity
  8
PAPER
100
AcDbLine
 10
1.091698147081564
 20
0.3834014898941989
 30
0.0
 11
1.091698147081564
 21
0.4171596365294742
 31
0.0
  0
LWPOLYLINE
  5
2E2
330
21
100
AcDbEntity
  8
PAPER
100
AcDbPolyline
 90
        4
 70
     1
 43
0.0
 10
1.116398343317045
 20
0.426046200428692
 10
1.116398343317048
 20
0.4996952784511639
 42
1.000000000000026
 10
1.088500965278228
 20
0.4996952784511639
 10
1.088500965278228
 20
0.426046200428692
 42
0.9999999999999998
  0
LWPOLYLINE
  5
2E8
330
21
100
AcDbEntity
  8
PAPER
100
AcDbPolyline
 90
       11
 70
     1
 43
0.0
 10
1.496892326062627
 20
0.5524611763417231
 10
1.538684940030307
 20
0.5524611763417231
 10
1.47832378001591
 20
0.3612812631982389
 42
-0.3272249499159052
 10
1.440319618096905
 20
0.3334269053398247
 10
1.379271351237073
 20
0.3334269053398247
 10
1.379271351237077
 20
0.3531941903501854
 10
1.416400195556034
 20
0.3531941903501854
 42
0.500425742919699
 10
1.431697805839234
 20
0.3736199714378292
 10
1.37927135123708
 20
0.5524611763417231
 10
1.420801844924441
 20
0.5524611763417231
 10
1.457435914654356
 20
0.4274921846227587
  0
LINE
  5
2F5
330
21
100
AcDbEntity
  8
PAPER
100
AcDbLine
 10
1.426385556143035
 20
0.3334269053398244
 30
0.0
 11
1.426385556143035
 21
0.356708985067719
 31
0.0
  0
LINE
  5
2F6
330
21
100
AcDbEntity
  8
PAPER
100
AcDbLine
 10
1.420615083573007
 20
0.3334269053398244
 30
0.0
 11
1.420615083573008
 21
0.3537614917972822
 31
0.0
  0
LINE
  5
2F7
330
21
100
AcDbEntity
  8
PAPER
100
AcDbLine
 10
1.414844611002982
 20
0.3334269053398244
 30
0.0
 11
1.414844611002982
 21
0.3531941903501854
 31
0.0
  0
LINE
  5
2F8
330
21
100
AcDbEntity
  8
PAPER
100
AcDbLine
 10
1.409074138432958
 20
0.3334269053398244
 30
0.0
 11
1.409074138432958
 21
0.3531941903501854
 31
0.0
  0
LINE
  5
2F9
330
21
100
AcDbEntity
  8
PAPER
100
AcDbLine
 10
1.403303665862932
 20
0.3334269053398244
 30
0.0
 11
1.403303665862931
 21
0.3531941903501854
 31
0.0
  0
LINE
  5
2FA
330
21
100
AcDbEntity
  8
PAPER
100
AcDbLine
 10
1.397533193292907
 20
0.3334269053398244
 30
0.0
 11
1.397533193292907
 21
0.3531941903501854
 31
0.0
  0
LINE
  5
2FB
330
21
100
AcDbEntity
  8
PAPER
100
AcDbLine
 10
1.391762720722881
 20
0.3334269053398244
 30
0.0
 11
1.39176272072288
 21
0.3531941903501854
 31
0.0
  0
LINE
  5
2FC
330
21
100
AcDbEntity
  8
PAPER
100
AcDbLine
 10
1.385992248152857
 20
0.3334269053398244
 30
0.0
 11
1.385992248152856
 21
0.3531941903501854
 31
0.0
  0
LINE
  5
2FD
330
21
100
AcDbEntity
  8
PAPER
100
AcDbLine
 10
1.38022177558283
 20
0.3334269053398244
 30
0.0
 11
1.380221775582829
 21
0.3531941903501854
 31
0.0
  0
LWPOLYLINE
  5
2FE
330
21
100
AcDbEntity
  8
PAPER
100
AcDbPolyline
 90
       17
 70
     1
 43
0.0
 10
1.295738630709426
 20
0.3732803025381342
 10
1.359504066226716
 20
0.3732803025381322
 10
1.35950406622672
 20
0.5126077791434152
 42
0.4142135623730996
 10
1.319650669028414
 20
0.552461176341722
 10
1.239943874631795
 20
0.5524611763417231
 42
0.3563939586927657
 10
1.200895679570868
 20
0.5205784585830566
 10
1.200895679570913
 20
0.5008111735727168
 10
1.263855912950778
 20
0.5008111735727168
 10
1.263855912950778
 20
0.5205784585830769
 10
1.295738630709426
 20
0.5205784585830769
 10
1.295738630709426
 20
0.4940481662509573
 10
1.223550682378897
 20
0.4550019875673489
 42
0.2561579178272127
 10
1.200090477433492
 20
0.4186762870785018
 10
1.200090477433492
 20
0.4131336997364419
 42
0.4142135623730949
 10
1.239943874631795
 20
0.3732803025381342
 10
1.263855912950778
 20
0.3732803025381348
 42
0.3566469110183342
 10
1.295100180665887
 20
0.3988145223150423
  0
LINE
  5
311
330
21
100
AcDbEntity
  8
PAPER
100
AcDbLine
 10
1.29366468703245
 20
0.4667081515446839
 30
0.0
 11
1.29366468703245
 21
0.4929263782342071
 31
0.0
  0
LINE
  5
312
330
21
100
AcDbEntity
  8
PAPER
100
AcDbLine
 10
1.276353269322374
 20
0.4687602077781364
 30
0.0
 11
1.276353269322374
 21
0.4835627001576509
 31
0.0
  0
LINE
  5
313
330
21
100
AcDbEntity
  8
PAPER
100
AcDbLine
 10
1.282123741892401
 20
0.4715561523690378
 30
0.0
 11
1.282123741892401
 21
0.4866839261831702
 31
0.0
  0
LINE
  5
314
330
21
100
AcDbEntity
  8
PAPER
100
AcDbLine
 10
1.287894214462424
 20
0.4710911479496545
 30
0.0
 11
1.287894214462425
 21
0.4898051522086887
 31
0.0
  0
LINE
  5
315
330
21
100
AcDbEntity
  8
PAPER
100
AcDbLine
 10
1.29366468703245
 20
0.5205784585830767
 30
0.0
 11
1.29366468703245
 21
0.5524611763417225
 31
0.0
  0
LINE
  5
316
330
21
100
AcDbEntity
  8
PAPER
100
AcDbLine
 10
1.287894214462425
 20
0.5205784585830767
 30
0.0
 11
1.287894214462425
 21
0.5524611763417225
 31
0.0
  0
LINE
  5
317
330
21
100
AcDbEntity
  8
PAPER
100
AcDbLine
 10
1.270582796752349
 20
0.5205784585830767
 30
0.0
 11
1.27058279675235
 21
0.5524611763417225
 31
0.0
  0
LINE
  5
318
330
21
100
AcDbEntity
  8
PAPER
100
AcDbLine
 10
1.276353269322376
 20
0.5205784585830767
 30
0.0
 11
1.276353269322374
 21
0.5524611763417225
 31
0.0
  0
LINE
  5
319
330
21
100
AcDbEntity
  8
PAPER
100
AcDbLine
 10
1.282123741892401
 20
0.5205784585830767
 30
0.0
 11
1.2821237418924
 21
0.5524611763417225
 31
0.0
  0
LINE
  5
31A
330
21
100
AcDbEntity
  8
PAPER
100
AcDbLine
 10
1.253271379042273
 20
0.5008111735727166
 30
0.0
 11
1.253271379042273
 21
0.5524611763417234
 31
0.0
  0
LINE
  5
31B
330
21
100
AcDbEntity
  8
PAPER
100
AcDbLine
 10
1.264812324182323
 20
0.5205784585830767
 30
0.0
 11
1.264812324182322
 21
0.5524611763417225
 31
0.0
  0
LINE
  5
31C
330
21
100
AcDbEntity
  8
PAPER
100
AcDbLine
 10
1.259041851612298
 20
0.5008111735727166
 30
0.0
 11
1.259041851612298
 21
0.5524611763417225
 31
0.0
  0
LINE
  5
31D
330
21
100
AcDbEntity
  8
PAPER
100
AcDbLine
 10
1.235959961332196
 20
0.5008111735727166
 30
0.0
 11
1.235959961332196
 21
0.5522615520163646
 31
0.0
  0
LINE
  5
31E
330
21
100
AcDbEntity
  8
PAPER
100
AcDbLine
 10
1.247500906472249
 20
0.5008111735727166
 30
0.0
 11
1.247500906472248
 21
0.5524611763417234
 31
0.0
  0
LINE
  5
31F
330
21
100
AcDbEntity
  8
PAPER
100
AcDbLine
 10
1.241730433902222
 20
0.5008111735727166
 30
0.0
 11
1.241730433902222
 21
0.5524611763417234
 31
0.0
  0
LINE
  5
320
330
21
100
AcDbEntity
  8
PAPER
100
AcDbLine
 10
1.218648543622122
 20
0.5008111735727166
 30
0.0
 11
1.218648543622121
 21
0.5462946036515167
 31
0.0
  0
LINE
  5
321
330
21
100
AcDbEntity
  8
PAPER
100
AcDbLine
 10
1.224419016192147
 20
0.5008111735727166
 30
0.0
 11
1.224419016192147
 21
0.5493129836609637
 31
0.0
  0
LINE
  5
322
330
21
100
AcDbEntity
  8
PAPER
100
AcDbLine
 10
1.230189488762171
 20
0.5008111735727166
 30
0.0
 11
1.230189488762171
 21
0.5512490165014013
 31
0.0
  0
LINE
  5
323
330
21
100
AcDbEntity
  8
PAPER
100
AcDbLine
 10
1.201337125912043
 20
0.5008111735727166
 30
0.0
 11
1.201337125912044
 21
0.5224977852874363
 31
0.0
  0
LINE
  5
324
330
21
100
AcDbEntity
  8
PAPER
100
AcDbLine
 10
1.207107598482069
 20
0.5008111735727166
 30
0.0
 11
1.20710759848207
 21
0.5351925580190516
 31
0.0
  0
LINE
  5
325
330
21
100
AcDbEntity
  8
PAPER
100
AcDbLine
 10
1.212878071052095
 20
0.5008111735727166
 30
0.0
 11
1.212878071052095
 21
0.5418607370250753
 31
0.0
  0
LINE
  5
326
330
21
100
AcDbEntity
  8
PAPER
100
AcDbLine
 10
1.305205632172501
 20
0.3732803025381342
 30
0.0
 11
1.305205632172501
 21
0.5524611763417225
 31
0.0
  0
LINE
  5
327
330
21
100
AcDbEntity
  8
PAPER
100
AcDbLine
 10
1.299435159602477
 20
0.3732803025381342
 30
0.0
 11
1.299435159602475
 21
0.5524611763417225
 31
0.0
  0
LINE
  5
328
330
21
100
AcDbEntity
  8
PAPER
100
AcDbLine
 10
1.293664687032449
 20
0.3938517569086384
 30
0.0
 11
1.29366468703245
 21
0.4117227115912535
 31
0.0
  0
LINE
  5
329
330
21
100
AcDbEntity
  8
PAPER
100
AcDbLine
 10
1.287894214462425
 20
0.3842186236207439
 30
0.0
 11
1.287894214462424
 21
0.407339715186329
 31
0.0
  0
LINE
  5
32A
330
21
100
AcDbEntity
  8
PAPER
100
AcDbLine
 10
1.282123741892401
 20
0.379032690841379
 30
0.0
 11
1.282123741892401
 21
0.4068747107669493
 31
0.0
  0
LINE
  5
32B
330
21
100
AcDbEntity
  8
PAPER
100
AcDbLine
 10
1.276353269322374
 20
0.3758317438941174
 30
0.0
 11
1.276353269322374
 21
0.4096706553578285
 31
0.0
  0
LINE
  5
32C
330
21
100
AcDbEntity
  8
PAPER
100
AcDbLine
 10
1.270582796752349
 20
0.3739980283024227
 30
0.0
 11
1.27058279675235
 21
0.4804414741321315
 31
0.0
  0
LINE
  5
32D
330
21
100
AcDbEntity
  8
PAPER
100
AcDbLine
 10
1.264812324182323
 20
0.3732946508806278
 30
0.0
 11
1.264812324182322
 21
0.4773202481066122
 31
0.0
  0
LINE
  5
32E
330
21
100
AcDbEntity
  8
PAPER
100
AcDbLine
 10
1.259041851612298
 20
0.3732803025381342
 30
0.0
 11
1.259041851612298
 21
0.4741990220810937
 31
0.0
  0
LINE
  5
32F
330
21
100
AcDbEntity
  8
PAPER
100
AcDbLine
 10
1.253271379042273
 20
0.3732803025381342
 30
0.0
 11
1.253271379042273
 21
0.4710777960555744
 31
0.0
  0
LINE
  5
330
330
21
100
AcDbEntity
  8
PAPER
100
AcDbLine
 10
1.247500906472248
 20
0.3732803025381342
 30
0.0
 11
1.247500906472249
 21
0.4679565700300559
 31
0.0
  0
LINE
  5
331
330
21
100
AcDbEntity
  8
PAPER
100
AcDbLine
 10
1.241730433902221
 20
0.3732803025381342
 30
0.0
 11
1.24173043390222
 21
0.4648353440045357
 31
0.0
  0
LINE
  5
332
330
21
100
AcDbEntity
  8
PAPER
100
AcDbLine
 10
1.235959961332196
 20
0.3734799268633269
 30
0.0
 11
1.235959961332195
 21
0.4617141179790173
 31
0.0
  0
LINE
  5
333
330
21
100
AcDbEntity
  8
PAPER
100
AcDbLine
 10
1.230189488762171
 20
0.3744924623784367
 30
0.0
 11
1.230189488762171
 21
0.4585928919534979
 31
0.0
  0
LINE
  5
334
330
21
100
AcDbEntity
  8
PAPER
100
AcDbLine
 10
1.224419016192147
 20
0.3764284952188237
 30
0.0
 11
1.224419016192147
 21
0.4554716659279795
 31
0.0
  0
LINE
  5
335
330
21
100
AcDbEntity
  8
PAPER
100
AcDbLine
 10
1.218648543622121
 20
0.37944687522834
 30
0.0
 11
1.218648543622122
 21
0.4519271817389744
 31
0.0
  0
LINE
  5
336
330
21
100
AcDbEntity
  8
PAPER
100
AcDbLine
 10
1.212878071052095
 20
0.3838807418546126
 30
0.0
 11
1.212878071052094
 21
0.4469750218450262
 31
0.0
  0
LINE
  5
337
330
21
100
AcDbEntity
  8
PAPER
100
AcDbLine
 10
1.207107598482069
 20
0.3905489208606176
 30
0.0
 11
1.207107598482069
 21
0.4397500811894373
 31
0.0
  0
LINE
  5
338
330
21
100
AcDbEntity
  8
PAPER
100
AcDbLine
 10
1.201337125912044
 20
0.4032436935918041
 30
0.0
 11
1.201337125912043
 21
0.4264327884905129
 31
0.0
  0
LWPOLYLINE
  5
339
330
21
100
AcDbEntity
  8
PAPER
100
AcDbPolyline
 90
        4
 70
     1
 43
0.0
 10
1.295718974745186
 20
0.4183177358485317
 10
1.295718974745186
 20
0.4601131272875233
 42
0.9999999999999998
 10
1.272492217045953
 20
0.4601131272875233
 10
1.272492217045953
 20
0.4183177358485317
 42
1.000000000000047
  0
LINE
  5
33F
330
21
100
AcDbEntity
  8
PAPER
100
AcDbLine
 10
1.426385556143036
 20
0.3917415313187778
 30
0.0
 11
1.426385556143033
 21
0.5334135857742009
 31
0.0
  0
LINE
  5
340
330
21
100
AcDbEntity
  8
PAPER
100
AcDbLine
 10
1.420615083573008
 20
0.4114262167532593
 30
0.0
 11
1.420615083573008
 21
0.5524611763417234
 31
0.0
  0
LINE
  5
341
330
21
100
AcDbEntity
  8
PAPER
100
AcDbLine
 10
1.409074138432958
 20
0.4507955876222017
 30
0.0
 11
1.409074138432958
 21
0.5524611763417234
 31
0.0
  0
LINE
  5
342
330
21
100
AcDbEntity
  8
PAPER
100
AcDbLine
 10
1.414844611002983
 20
0.4311109021877309
 30
0.0
 11
1.414844611002983
 21
0.5524611763417234
 31
0.0
  0
LINE
  5
343
330
21
100
AcDbEntity
  8
PAPER
100
AcDbLine
 10
1.403303665862932
 20
0.4704802730566814
 30
0.0
 11
1.403303665862934
 21
0.5524611763417234
 31
0.0
  0
LINE
  5
344
330
21
100
AcDbEntity
  8
PAPER
100
AcDbLine
 10
1.397533193292907
 20
0.4901649584911583
 30
0.0
 11
1.397533193292907
 21
0.5524611763417234
 31
0.0
  0
LINE
  5
345
330
21
100
AcDbEntity
  8
PAPER
100
AcDbLine
 10
1.385992248152856
 20
0.5295343293601088
 30
0.0
 11
1.385992248152857
 21
0.5524611763417234
 31
0.0
  0
LINE
  5
346
330
21
100
AcDbEntity
  8
PAPER
100
AcDbLine
 10
1.391762720722881
 20
0.5098496439256362
 30
0.0
 11
1.391762720722881
 21
0.5524611763417234
 31
0.0
  0
LINE
  5
347
330
21
100
AcDbEntity
  8
PAPER
100
AcDbLine
 10
1.38022177558283
 20
0.5492190147945867
 30
0.0
 11
1.380221775582831
 21
0.5524611763417234
 31
0.0
  0
LINE
  5
348
330
21
100
AcDbEntity
  8
PAPER
100
AcDbLine
 10
1.357139885302729
 20
0.3732803025381324
 30
0.0
 11
1.357139885302729
 21
0.5261300545205117
 31
0.0
  0
LINE
  5
349
330
21
100
AcDbEntity
  8
PAPER
100
AcDbLine
 10
1.351369412732704
 20
0.3732803025381324
 30
0.0
 11
1.351369412732704
 21
0.536736901921884
 31
0.0
  0
LINE
  5
34A
330
21
100
AcDbEntity
  8
PAPER
100
AcDbLine
 10
1.345598940162679
 20
0.3732803025381324
 30
0.0
 11
1.345598940162679
 21
0.542856423631714
 31
0.0
  0
LINE
  5
34B
330
21
100
AcDbEntity
  8
PAPER
100
AcDbLine
 10
1.339828467592653
 20
0.3732803025381324
 30
0.0
 11
1.339828467592653
 21
0.5469756378683613
 31
0.0
  0
LINE
  5
34C
330
21
100
AcDbEntity
  8
PAPER
100
AcDbLine
 10
1.334057995022629
 20
0.3732803025381324
 30
0.0
 11
1.334057995022629
 21
0.5497658499482022
 31
0.0
  0
LINE
  5
34D
330
21
100
AcDbEntity
  8
PAPER
100
AcDbLine
 10
1.328287522452602
 20
0.3732803025381333
 30
0.0
 11
1.328287522452602
 21
0.5515140515318916
 31
0.0
  0
LINE
  5
34E
330
21
100
AcDbEntity
  8
PAPER
100
AcDbLine
 10
1.322517049882577
 20
0.3732803025381333
 30
0.0
 11
1.322517049882577
 21
0.5523579631560212
 31
0.0
  0
LINE
  5
34F
330
21
100
AcDbEntity
  8
PAPER
100
AcDbLine
 10
1.316746577312552
 20
0.3732803025381333
 30
0.0
 11
1.316746577312551
 21
0.5524611763417225
 31
0.0
  0
LINE
  5
350
330
21
100
AcDbEntity
  8
PAPER
100
AcDbLine
 10
1.310976104742527
 20
0.3732803025381342
 30
0.0
 11
1.310976104742527
 21
0.5524611763417225
 31
0.0
  0
LINE
  5
351
330
21
100
AcDbEntity
  8
PAPER
100
AcDbLine
 10
1.443696973853109
 20
0.3335702693432709
 30
0.0
 11
1.443696973853109
 21
0.4743595294707779
 31
0.0
  0
LINE
  5
352
330
21
100
AcDbEntity
  8
PAPER
100
AcDbLine
 10
1.449467446423135
 20
0.3344909933775575
 30
0.0
 11
1.449467446423136
 21
0.4546748440363027
 31
0.0
  0
LINE
  5
353
330
21
100
AcDbEntity
  8
PAPER
100
AcDbLine
 10
1.455237918993159
 20
0.3363244157728322
 30
0.0
 11
1.455237918993159
 21
0.434990158601832
 31
0.0
  0
LINE
  5
354
330
21
100
AcDbEntity
  8
PAPER
100
AcDbLine
 10
1.461008391563187
 20
0.3392175968220312
 30
0.0
 11
1.461008391563184
 21
0.4388071730188433
 31
0.0
  0
LINE
  5
355
330
21
100
AcDbEntity
  8
PAPER
100
AcDbLine
 10
1.46677886413321
 20
0.3434775917984794
 30
0.0
 11
1.466778864133209
 21
0.4570838006461269
 31
0.0
  0
LINE
  5
356
330
21
100
AcDbEntity
  8
PAPER
100
AcDbLine
 10
1.472549336703235
 20
0.3498380648719495
 30
0.0
 11
1.472549336703237
 21
0.4753604282734159
 31
0.0
  0
LINE
  5
357
330
21
100
AcDbEntity
  8
PAPER
100
AcDbLine
 10
1.478319809273261
 20
0.3612686940363037
 30
0.0
 11
1.47831980927326
 21
0.4936370559007023
 31
0.0
  0
LINE
  5
358
330
21
100
AcDbEntity
  8
PAPER
100
AcDbLine
 10
1.437926501283085
 20
0.3334269053398244
 30
0.0
 11
1.437926501283083
 21
0.4940442149052523
 31
0.0
  0
LINE
  5
359
330
21
100
AcDbEntity
  8
PAPER
100
AcDbLine
 10
1.432156028713059
 20
0.3334269053398244
 30
0.0
 11
1.43215602871306
 21
0.5137289003397293
 31
0.0
  0
LINE
  5
35A
330
21
100
AcDbEntity
  8
PAPER
100
AcDbLine
 10
1.536024534973513
 20
0.5440349630687658
 30
0.0
 11
1.536024534973513
 21
0.5524611763417234
 31
0.0
  0
LINE
  5
35B
330
21
100
AcDbEntity
  8
PAPER
100
AcDbLine
 10
1.530254062403488
 20
0.5257583354414786
 30
0.0
 11
1.530254062403488
 21
0.5524611763417234
 31
0.0
  0
LINE
  5
35C
330
21
100
AcDbEntity
  8
PAPER
100
AcDbLine
 10
1.484090281843287
 20
0.3795453144231791
 30
0.0
 11
1.484090281843287
 21
0.5119136835279904
 31
0.0
  0
LINE
  5
35D
330
21
100
AcDbEntity
  8
PAPER
100
AcDbLine
 10
1.489860754413312
 20
0.3978219420504663
 30
0.0
 11
1.489860754413312
 21
0.5301903111552776
 31
0.0
  0
LINE
  5
35E
330
21
100
AcDbEntity
  8
PAPER
100
AcDbLine
 10
1.495631226983337
 20
0.4160985696777536
 30
0.0
 11
1.495631226983337
 21
0.548466938782563
 31
0.0
  0
LINE
  5
35F
330
21
100
AcDbEntity
  8
PAPER
100
AcDbLine
 10
1.501401699553362
 20
0.4343751973050417
 30
0.0
 11
1.501401699553362
 21
0.5524611763417234
 31
0.0
  0
LINE
  5
360
330
21
100
AcDbEntity
  8
PAPER
100
AcDbLine
 10
1.507172172123388
 20
0.4526518249323289
 30
0.0
 11
1.507172172123389
 21
0.5524611763417234
 31
0.0
  0
LINE
  5
361
330
21
100
AcDbEntity
  8
PAPER
100
AcDbLine
 10
1.512942644693415
 20
0.4709284525596223
 30
0.0
 11
1.512942644693415
 21
0.5524611763417234
 31
0.0
  0
LINE
  5
362
330
21
100
AcDbEntity
  8
PAPER
100
AcDbLine
 10
1.518713117263439
 20
0.4892050801869095
 30
0.0
 11
1.518713117263439
 21
0.5524611763417234
 31
0.0
  0
LINE
  5
363
330
21
100
AcDbEntity
  8
PAPER
100
AcDbLine
 10
1.524483589833462
 20
0.5074817078141914
 30
0.0
 11
1.524483589833462
 21
0.5524611763417234
 31
0.0
  0
ENDBLK
  5
364
330
21
100
AcDbEntity
  8
0
100
AcDbBlockEnd
  0
BLOCK
  5
5DB
330
5D9
100
AcDbEntity
  8
0
100
AcDbBlockBegin
  2
A$C0C8E303C
 70
     0
 10
0.0
 20
0.0
 30
0.0
  3
A$C0C8E303C
  1

  0
TEXT
  5
5DA
330
5D9
100
AcDbEntity
  8
PAPER
100
AcDbText
 10
-0.0133333404476792
 20
0.0133333293341025
 30
0.833359574243258
 40
0.07
  1
REV. DEC. 3, 1997
 72
     2
 11
1.016666659552321
 21
0.0133333293341025
 31
0.833359574243258
100
AcDbText
  0
ENDBLK
  5
5DC
330
5D9
100
AcDbEntity
  8
0
100
AcDbBlockEnd
  0
ENDSEC
  0
SECTION
  2
ENTITIES
  0
TEXT
  5
36B
330
17
100
AcDbEntity
  8
PAPER
100
AcDbText
 10
0.4916083843311484
 20
7.924966680401783
 30
0.0
 40
0.07
  1
%%uNOTE:%%u MAX. PITCH AVAILABLE IS 12:12
  7
arial1
 72
     1
 11
1.407362136036469
 21
7.924966680401783
 31
0.0
100
AcDbText
  0
TEXT
  5
36C
330
17
100
AcDbEntity
  8
PAPER
100
AcDbText
 10
0.5475644109775314
 20
7.800513413003121
 30
0.0
 40
0.07
  1
OVER 12:12 USE VERTICAL-LIFT TRACK
  7
arial1
 72
     1
 11
1.484972323665116
 21
7.800513413003121
 31
0.0
100
AcDbText
  0
LINE
  5
36D
330
17
100
AcDbEntity
  8
PAPER
100
AcDbLine
 10
7.929073707065835
 20
6.815024037185721
 30
0.0
 11
7.929073707065833
 21
7.503618548497057
 31
0.0
  0
LINE
  5
36E
330
17
100
AcDbEntity
  8
PAPER
100
AcDbLine
 10
7.851993528670182
 20
7.517209863626032
 30
0.0
 11
7.851993528670178
 21
6.828615352314698
 31
0.0
  0
LINE
  5
36F
330
17
100
AcDbEntity
  8
PAPER
100
AcDbLine
 10
7.86260086637563
 20
7.515339503795075
 30
0.0
 11
7.862600866375633
 21
6.82674499248374
 31
0.0
  0
LINE
  5
370
330
17
100
AcDbEntity
  8
PAPER
100
AcDbLine
 10
10.0426432118878
 20
1.620721019141177
 30
0.0
 11
9.734322498305196
 21
1.620721019141177
 31
0.0
  0
LINE
  5
371
330
17
100
AcDbEntity
  8
PAPER
100
AcDbLine
 10
9.355554315407399
 20
6.026730270058227
 30
0.0
 11
9.355554315407399
 21
6.009467864417781
 31
0.0
  0
LINE
  5
372
330
17
100
AcDbEntity
  8
PAPER
100
AcDbLine
 10
9.297712145167796
 20
6.026730270058227
 30
0.0
 11
9.297712145167796
 21
6.009467864417781
 31
0.0
  0
LINE
  5
373
330
17
100
AcDbEntity
  8
PAPER
100
AcDbLine
 10
9.268788655045504
 20
6.026730270058227
 30
0.0
 11
9.268788655045504
 21
6.009467864417781
 31
0.0
  0
LINE
  5
374
330
17
100
AcDbEntity
  8
PAPER
100
AcDbLine
 10
6.980191948948568
 20
6.894386472250606
 30
0.0
 11
7.005696073936443
 21
6.977942329336711
 31
0.0
  0
LINE
  5
375
330
17
100
AcDbEntity
  8
PAPER
100
AcDbLine
 10
9.671694853358733
 20
6.50775291194117
 30
0.0
 11
9.671694853358733
 21
6.593427141357301
 31
0.0
  0
LINE
  5
376
330
17
100
AcDbEntity
  8
PAPER
100
AcDbLine
 10
9.671694853358733
 20
6.593427141357301
 30
0.0
 11
9.734322498305196
 21
6.593427141357301
 31
0.0
  0
LINE
  5
377
330
17
100
AcDbEntity
  8
PAPER
100
AcDbLine
 10
9.734322498305193
 20
6.496709968398878
 30
0.0
 11
9.730442707257818
 21
6.419226717895752
 31
0.0
  0
LINE
  5
378
330
17
100
AcDbEntity
  8
PAPER
100
AcDbLine
 10
7.247090825139417
 20
6.847324999257391
 30
0.0
 11
7.369539964754194
 21
6.825733912178769
 31
0.0
  0
LINE
  5
379
330
17
100
AcDbEntity
  8
PAPER
100
AcDbLine
 10
7.252110137331663
 20
6.875790933240243
 30
0.0
 11
7.383659075461582
 21
6.852595306164388
 31
0.0
  0
LINE
  5
37A
330
17
100
AcDbEntity
  8
PAPER
100
AcDbLine
 10
7.262148761716144
 20
6.932722801205945
 30
0.0
 11
7.411876106688112
 21
6.906321830537543
 31
0.0
  0
LINE
  5
37B
330
17
100
AcDbEntity
  8
PAPER
100
AcDbLine
 10
7.381651635880078
 20
6.823598297777809
 30
0.0
 11
7.696526253138165
 21
6.768077407214955
 31
0.0
  0
LINE
  5
37C
330
17
100
AcDbEntity
  8
PAPER
100
AcDbLine
 10
7.395769874896488
 20
6.850459845466067
 30
0.0
 11
7.701545565330408
 21
6.796543341197807
 31
0.0
  0
LINE
  5
37D
330
17
100
AcDbEntity
  8
PAPER
100
AcDbLine
 10
7.423985165146543
 20
6.904186676820345
 30
0.0
 11
7.711584189714893
 21
6.853475209163508
 31
0.0
  0
LINE
  5
37E
330
17
100
AcDbEntity
  8
PAPER
100
AcDbLine
 10
7.356396153601996
 20
6.864394268977926
 30
0.0
 11
7.253305801124414
 21
6.882571879570468
 31
0.0
  0
LINE
  5
37F
330
17
100
AcDbEntity
  8
PAPER
100
AcDbLine
 10
7.364106211811184
 20
6.908120181927907
 30
0.0
 11
7.356396153601996
 21
6.864394268977926
 31
0.0
  0
LINE
  5
380
330
17
100
AcDbEntity
  8
PAPER
100
AcDbLine
 10
7.261015859333606
 20
6.92629779252045
 30
0.0
 11
7.364106211811184
 21
6.908120181927907
 31
0.0
  0
LWPOLYLINE
  5
381
330
17
100
AcDbEntity
  8
PAPER
100
AcDbPolyline
 90
        4
 70
     0
 43
0.0
 10
7.268996110643201
 20
6.971556046688556
 10
7.233992486996441
 20
6.773040632279923
 42
0.8557839920306282
 10
7.325361942542416
 20
6.741780614862797
 42
0.0004912296420222
 10
7.448532040181257
 20
6.976204310575493
 42
0.0004912296420222
  0
LWPOLYLINE
  5
387
330
17
100
AcDbEntity
  8
PAPER
100
AcDbPolyline
 90
        4
 70
     0
 43
0.0
 10
7.257459933005028
 20
6.973590186060413
 10
7.222456309358262
 20
6.775074771651778
 42
0.855783992030626
 10
7.335726482671391
 20
6.73632191305754
 42
0.0004912296420222
 10
7.458907286198761
 20
6.970765984770617
 42
0.1553612620775308
  0
LINE
  5
38D
330
17
100
AcDbEntity
  8
PAPER
100
AcDbLine
 10
6.980191948948564
 20
7.670932003955216
 30
0.0
 11
6.980191948948568
 21
6.894386472250606
 31
0.0
  0
LINE
  5
38E
330
17
100
AcDbEntity
  8
PAPER
100
AcDbLine
 10
9.601915672547299
 20
5.081653073954652
 30
0.0
 11
9.515205176070104
 21
5.080749839616189
 31
0.0
  0
LINE
  5
38F
330
17
100
AcDbEntity
  8
PAPER
100
AcDbLine
 10
6.969584611243115
 20
7.672802363786172
 30
0.0
 11
6.969584611243115
 21
6.894386472250606
 31
0.0
  0
LINE
  5
390
330
17
100
AcDbEntity
  8
PAPER
100
AcDbLine
 10
7.046664789638769
 20
6.970718439393415
 30
0.0
 11
7.046664789638767
 21
7.659211048657197
 31
0.0
  0
LINE
  5
391
330
17
100
AcDbEntity
  8
PAPER
100
AcDbLine
 10
9.727096231580603
 20
6.009467864417781
 30
0.0
 11
9.727096231580603
 21
6.074860166876745
 31
0.0
  0
LINE
  5
392
330
17
100
AcDbEntity
  8
PAPER
100
AcDbLine
 10
9.727096231580603
 20
6.074860166876745
 30
0.0
 11
9.352271917356482
 21
6.074860166876745
 31
0.0
  0
LINE
  5
393
330
17
100
AcDbEntity
  8
PAPER
100
AcDbLine
 10
10.11454124331128
 20
5.904459153038954
 30
0.0
 11
9.162208754923089
 21
5.904459153038954
 31
0.0
  0
LINE
  5
394
330
17
100
AcDbEntity
  8
PAPER
100
AcDbLine
 10
9.671694853358729
 20
5.131262618031351
 30
0.0
 11
9.671694853358729
 21
5.667430384912893
 31
0.0
  0
LINE
  5
395
330
17
100
AcDbEntity
  8
PAPER
100
AcDbLine
 10
9.514563307140122
 20
5.14236925689466
 30
0.0
 11
9.424278873389113
 21
5.904459153038954
 31
0.0
  0
LINE
  5
396
330
17
100
AcDbEntity
  8
PAPER
100
AcDbLine
 10
9.543450606867846
 20
5.144225448416134
 30
0.0
 11
9.453386075258695
 21
5.904459153038954
 31
0.0
  0
LINE
  5
397
330
17
100
AcDbEntity
  8
PAPER
100
AcDbLine
 10
9.601225206323299
 20
5.147937831459081
 30
0.0
 11
9.511600478997863
 21
5.904459153038954
 31
0.0
  0
LINE
  5
398
330
17
100
AcDbEntity
  8
PAPER
100
AcDbLine
 10
9.818597117595562
 20
5.32056958213246
 30
0.0
 11
9.734322498305196
 21
5.404844201422816
 31
0.0
  0
LINE
  5
399
330
17
100
AcDbEntity
  8
PAPER
100
AcDbLine
 10
9.982108868111463
 20
5.32056958213246
 30
0.0
 11
9.734322498305196
 21
5.568355951938746
 31
0.0
  0
LINE
  5
39A
330
17
100
AcDbEntity
  8
PAPER
100
AcDbLine
 10
10.0426432118878
 20
5.423546988872069
 30
0.0
 11
9.734322498305196
 21
5.731867702454676
 31
0.0
  0
LINE
  5
39B
330
17
100
AcDbEntity
  8
PAPER
100
AcDbLine
 10
10.0426432118878
 20
5.587058739387929
 30
0.0
 11
9.734322498305196
 21
5.895379452970536
 31
0.0
  0
LINE
  5
39C
330
17
100
AcDbEntity
  8
PAPER
100
AcDbLine
 10
10.0426432118878
 20
5.75057048990386
 30
0.0
 11
9.8887545487527
 21
5.904459153038954
 31
0.0
  0
LINE
  5
39D
330
17
100
AcDbEntity
  8
PAPER
100
AcDbLine
 10
9.671694853358729
 20
5.848087053027701
 30
0.0
 11
9.671694853358729
 21
5.904459153038954
 31
0.0
  0
POINT
  5
39E
330
17
100
AcDbEntity
  8
PAPER
100
AcDbPoint
 10
9.734322498305196
 20
5.667430384912893
 30
0.0
  0
POINT
  5
39F
330
17
100
AcDbEntity
  8
PAPER
100
AcDbPoint
 10
9.734322498305196
 20
5.667430384912893
 30
0.0
  0
LINE
  5
3A0
330
17
100
AcDbEntity
  8
PAPER
100
AcDbLine
 10
9.727096231580603
 20
5.751736830033137
 30
0.0
 11
9.529693421213046
 21
5.751736830033137
 31
0.0
  0
LINE
  5
3A1
330
17
100
AcDbEntity
  8
PAPER
100
AcDbLine
 10
9.727096231580603
 20
5.848087053027701
 30
0.0
 11
9.518278855334585
 21
5.848087053027701
 31
0.0
  0
LINE
  5
3A2
330
17
100
AcDbEntity
  8
PAPER
100
AcDbLine
 10
9.727096231580603
 20
5.751736830033137
 30
0.0
 11
9.727096231580603
 21
5.848087053027701
 31
0.0
  0
LINE
  5
3A3
330
17
100
AcDbEntity
  8
PAPER
100
AcDbLine
 10
9.734322498305196
 20
5.667430384912893
 30
0.0
 11
9.671694853358729
 21
5.667430384912893
 31
0.0
  0
LINE
  5
3A4
330
17
100
AcDbEntity
  8
PAPER
100
AcDbLine
 10
9.671694853358729
 20
5.667430384912893
 30
0.0
 11
9.671694853358729
 21
5.751736830033137
 31
0.0
  0
LINE
  5
3A5
330
17
100
AcDbEntity
  8
PAPER
100
AcDbLine
 10
9.734322498305196
 20
5.667430384912893
 30
0.0
 11
9.734322498305196
 21
5.904459153038954
 31
0.0
  0
LINE
  5
3A6
330
17
100
AcDbEntity
  8
PAPER
100
AcDbLine
 10
9.734322498305196
 20
5.667430384912893
 30
0.0
 11
9.671694853358729
 21
5.667430384912893
 31
0.0
  0
LINE
  5
3A7
330
17
100
AcDbEntity
  8
PAPER
100
AcDbLine
 10
9.734322498305196
 20
5.32056958213246
 30
0.0
 11
9.734322498305196
 21
5.904459153038954
 31
0.0
  0
LINE
  5
3A8
330
17
100
AcDbEntity
  8
PAPER
100
AcDbLine
 10
10.0426432118878
 20
5.32056958213246
 30
0.0
 11
9.734322498305196
 21
5.32056958213246
 31
0.0
  0
LINE
  5
3A9
330
17
100
AcDbEntity
  8
PAPER
100
AcDbLine
 10
9.783745837373864
 20
6.009467864417781
 30
0.0
 11
9.734322498305196
 21
6.058891203486466
 31
0.0
  0
LINE
  5
3AA
330
17
100
AcDbEntity
  8
PAPER
100
AcDbLine
 10
9.671694853358726
 20
6.074860166876745
 30
0.0
 11
9.671694853358729
 21
6.429585549596879
 31
0.0
  0
LINE
  5
3AB
330
17
100
AcDbEntity
  8
PAPER
100
AcDbLine
 10
10.11154323302684
 20
6.009467864417781
 30
0.0
 11
9.163542336763992
 21
6.009467864417781
 31
0.0
  0
LINE
  5
3AC
330
17
100
AcDbEntity
  8
PAPER
100
AcDbLine
 10
9.734322498305193
 20
6.009467864417781
 30
0.0
 11
9.734322498305193
 21
7.576650801669441
 31
0.0
  0
LINE
  5
3AD
330
17
100
AcDbEntity
  8
PAPER
100
AcDbLine
 10
9.947257587889765
 20
6.009467864417781
 30
0.0
 11
9.868336313040916
 21
6.088389139266639
 31
0.0
  0
LINE
  5
3AE
330
17
100
AcDbEntity
  8
PAPER
100
AcDbLine
 10
10.0426432118878
 20
6.088389139266639
 30
0.0
 11
10.0426432118878
 21
6.009467864417781
 31
0.0
  0
LINE
  5
3AF
330
17
100
AcDbEntity
  8
PAPER
100
AcDbLine
 10
7.76216766492761
 20
6.756401153217128
 30
0.0
 11
8.791460208059238
 21
6.57490910682099
 31
0.0
  0
LINE
  5
3B0
330
17
100
AcDbEntity
  8
PAPER
100
AcDbLine
 10
7.767186977119851
 20
6.784867087199979
 30
0.0
 11
8.796479520251484
 21
6.603375040803841
 31
0.0
  0
LINE
  5
3B1
330
17
100
AcDbEntity
  8
PAPER
100
AcDbLine
 10
7.777225601504341
 20
6.841798955165678
 30
0.0
 11
9.734322498305193
 21
6.496709968398878
 31
0.0
  0
LINE
  5
3B2
330
17
100
AcDbEntity
  8
PAPER
100
AcDbLine
 10
7.73476535126492
 20
6.984942109219796
 30
0.0
 11
7.674533604958009
 21
6.643350901425588
 31
0.0
  0
LINE
  5
3B3
330
17
100
AcDbEntity
  8
PAPER
100
AcDbLine
 10
7.800406763054351
 20
6.973265855221898
 30
0.0
 11
7.74017501674744
 21
6.63167464742769
 31
0.0
  0
LINE
  5
3B4
330
17
100
AcDbEntity
  8
PAPER
100
AcDbLine
 10
6.995657449551957
 20
6.921010461371007
 30
0.0
 11
7.240573959693485
 21
6.877825072612099
 31
0.0
  0
LINE
  5
3B5
330
17
100
AcDbEntity
  8
PAPER
100
AcDbLine
 10
6.980191948948568
 20
6.894386472250606
 30
0.0
 11
7.235554647501239
 21
6.849359138629249
 31
0.0
  0
LINE
  5
3B6
330
17
100
AcDbEntity
  8
PAPER
100
AcDbLine
 10
9.098963322444994
 20
6.530573571199436
 30
0.0
 11
9.730442707257818
 21
6.419226717895752
 31
0.0
  0
LINE
  5
3B7
330
17
100
AcDbEntity
  8
PAPER
100
AcDbLine
 10
7.005696073936443
 20
6.977942329336711
 30
0.0
 11
7.250612584077965
 21
6.934756940577799
 31
0.0
  0
ARC
  5
3B8
330
17
100
AcDbEntity
  8
PAPER
100
AcDbCircle
 10
8.691073964214389
 20
6.005590427163976
 30
0.0
 40
0.6070064048657575
100
AcDbArc
 50
1.995808851090478
 51
80.00000000000001
  0
ARC
  5
3B9
330
17
100
AcDbEntity
  8
PAPER
100
AcDbCircle
 10
8.691073964214389
 20
6.005590427163976
 30
0.0
 40
0.6648165386624962
100
AcDbArc
 50
1.822198928566358
 51
80.00000000000001
  0
ARC
  5
3BA
330
17
100
AcDbEntity
  8
PAPER
100
AcDbCircle
 10
8.691073964214389
 20
6.005590427163976
 30
0.0
 40
0.5781013379673881
100
AcDbArc
 50
2.095642755538319
 51
80.00000000000001
  0
POINT
  5
3BB
330
17
100
AcDbEntity
  8
PAPER
100
AcDbPoint
 10
9.515205396895872
 20
5.080728640342635
 30
0.0
  0
LINE
  5
3BC
330
17
100
AcDbEntity
  8
PAPER
100
AcDbLine
 10
10.0426432118878
 20
1.620721019141177
 30
0.0
 11
10.0426432118878
 21
5.904459153038954
 31
0.0
  0
LINE
  5
3BD
330
17
100
AcDbEntity
  8
PAPER
100
AcDbLine
 10
9.734322498305196
 20
1.620721019141177
 30
0.0
 11
9.734322498305196
 21
5.32056958213246
 31
0.0
  0
LINE
  5
3BE
330
17
100
AcDbEntity
  8
PAPER
100
AcDbLine
 10
9.550933332944346
 20
1.650846779688857
 30
0.0
 11
9.514563307140118
 21
5.14236925689466
 31
0.0
  0
LINE
  5
3BF
330
17
100
AcDbEntity
  8
PAPER
100
AcDbLine
 10
9.57983683177008
 20
1.65114785780162
 30
0.0
 11
9.543450606867846
 21
5.144225448416134
 31
0.0
  0
LINE
  5
3C0
330
17
100
AcDbEntity
  8
PAPER
100
AcDbLine
 10
9.637643829421548
 20
1.651750014027146
 30
0.0
 11
9.550933332944346
 21
1.650846779688857
 31
0.0
  0
LINE
  5
3C1
330
17
100
AcDbEntity
  8
PAPER
100
AcDbLine
 10
9.734322498305196
 20
1.620721019141177
 30
0.0
 11
9.734322498305196
 21
5.667430384912893
 31
0.0
  0
LINE
  5
3C2
330
17
100
AcDbEntity
  8
PAPER
100
AcDbLine
 10
9.671694853358729
 20
1.620721019141177
 30
0.0
 11
9.671694853358729
 21
1.695392441961964
 31
0.0
  0
LINE
  5
3C3
330
17
100
AcDbEntity
  8
PAPER
100
AcDbLine
 10
9.734322498305196
 20
1.620721019141177
 30
0.0
 11
9.671694853358729
 21
1.620721019141177
 31
0.0
  0
LINE
  5
3C4
330
17
100
AcDbEntity
  8
PAPER
100
AcDbLine
 10
9.610090720580007
 20
4.29684846281521
 30
0.0
 11
9.727096231580603
 21
4.29684846281521
 31
0.0
  0
LINE
  5
3C5
330
17
100
AcDbEntity
  8
PAPER
100
AcDbLine
 10
9.6110943687362
 20
4.200498239820645
 30
0.0
 11
9.727096231580603
 21
4.200498239820645
 31
0.0
  0
LINE
  5
3C6
330
17
100
AcDbEntity
  8
PAPER
100
AcDbLine
 10
9.727096231580603
 20
4.29684846281521
 30
0.0
 11
9.727096231580603
 21
4.200498239820645
 31
0.0
  0
LINE
  5
3C7
330
17
100
AcDbEntity
  8
PAPER
100
AcDbLine
 10
9.727793654814956
 20
5.129257574140926
 30
0.0
 11
9.727793654814956
 21
5.032907351146362
 31
0.0
  0
LINE
  5
3C8
330
17
100
AcDbEntity
  8
PAPER
100
AcDbLine
 10
9.602423440493222
 20
5.032907351146362
 30
0.0
 11
9.727793654814956
 21
5.032907351146362
 31
0.0
  0
LINE
  5
3C9
330
17
100
AcDbEntity
  8
PAPER
100
AcDbLine
 10
9.601419792337026
 20
5.129257574140926
 30
0.0
 11
9.727793654814956
 21
5.129257574140926
 31
0.0
  0
LINE
  5
3CA
330
17
100
AcDbEntity
  8
PAPER
100
AcDbLine
 10
9.727096231580603
 20
3.64166694645217
 30
0.0
 11
9.727096231580603
 21
3.545316723457606
 31
0.0
  0
LINE
  5
3CB
330
17
100
AcDbEntity
  8
PAPER
100
AcDbLine
 10
9.617919176198313
 20
3.545316723457606
 30
0.0
 11
9.727096231580603
 21
3.545316723457606
 31
0.0
  0
LINE
  5
3CC
330
17
100
AcDbEntity
  8
PAPER
100
AcDbLine
 10
9.61691552804212
 20
3.64166694645217
 30
0.0
 11
9.727096231580603
 21
3.64166694645217
 31
0.0
  0
LINE
  5
3CD
330
17
100
AcDbEntity
  8
PAPER
100
AcDbLine
 10
9.727096231580603
 20
2.716704805704349
 30
0.0
 11
9.727096231580603
 21
2.620354582709785
 31
0.0
  0
LINE
  5
3CE
330
17
100
AcDbEntity
  8
PAPER
100
AcDbLine
 10
9.627554198497769
 20
2.620354582709785
 30
0.0
 11
9.727096231580603
 21
2.620354582709785
 31
0.0
  0
LINE
  5
3CF
330
17
100
AcDbEntity
  8
PAPER
100
AcDbLine
 10
9.626550550341576
 20
2.716704805704349
 30
0.0
 11
9.727096231580603
 21
2.716704805704349
 31
0.0
  0
LINE
  5
3D0
330
17
100
AcDbEntity
  8
PAPER
100
AcDbLine
 10
9.727096231580603
 20
1.791742664956529
 30
0.0
 11
9.727096231580603
 21
1.695392441961964
 31
0.0
  0
LINE
  5
3D1
330
17
100
AcDbEntity
  8
PAPER
100
AcDbLine
 10
9.637189220797225
 20
1.695392441961964
 30
0.0
 11
9.727096231580603
 21
1.695392441961964
 31
0.0
  0
LINE
  5
3D2
330
17
100
AcDbEntity
  8
PAPER
100
AcDbLine
 10
9.636185572641032
 20
1.791742664956529
 30
0.0
 11
9.727096231580603
 21
1.791742664956529
 31
0.0
  0
LINE
  5
3D3
330
17
100
AcDbEntity
  8
PAPER
100
AcDbLine
 10
9.671694853358729
 20
5.129257574140926
 30
0.0
 11
9.671694853358729
 21
5.266312763348994
 31
0.0
  0
LINE
  5
3D4
330
17
100
AcDbEntity
  8
PAPER
100
AcDbLine
 10
9.671694853358729
 20
4.29684846281521
 30
0.0
 11
9.671694853358729
 21
5.032907351146362
 31
0.0
  0
LINE
  5
3D5
330
17
100
AcDbEntity
  8
PAPER
100
AcDbLine
 10
9.671694853358729
 20
3.64166694645217
 30
0.0
 11
9.671694853358729
 21
4.200498239820645
 31
0.0
  0
LINE
  5
3D6
330
17
100
AcDbEntity
  8
PAPER
100
AcDbLine
 10
9.671694853358729
 20
2.716704805704349
 30
0.0
 11
9.671694853358729
 21
3.545316723457606
 31
0.0
  0
LINE
  5
3D7
330
17
100
AcDbEntity
  8
PAPER
100
AcDbLine
 10
9.671694853358729
 20
1.791742664956529
 30
0.0
 11
9.671694853358729
 21
2.620354582709785
 31
0.0
  0
LINE
  5
3D8
330
17
100
AcDbEntity
  8
PAPER
100
AcDbLine
 10
9.637643829421548
 20
1.651750014027146
 30
0.0
 11
9.601225206323299
 21
5.147937831459081
 31
0.0
  0
LINE
  5
3D9
330
17
100
AcDbEntity
  8
PAPER
100
AcDbLine
 10
10.0426432118878
 20
6.088389139266639
 30
0.0
 11
10.0426432118878
 21
7.888577329085374
 31
0.0
  0
LINE
  5
3DA
330
17
100
AcDbEntity
  8
PAPER
100
AcDbLine
 10
10.0426432118878
 20
6.24110574145158
 30
0.0
 11
9.734322498305196
 21
6.549426455034186
 31
0.0
  0
LINE
  5
3DB
330
17
100
AcDbEntity
  8
PAPER
100
AcDbLine
 10
10.0426432118878
 20
6.40461749196744
 30
0.0
 11
9.734322498305196
 21
6.712938205550047
 31
0.0
  0
LINE
  5
3DC
330
17
100
AcDbEntity
  8
PAPER
100
AcDbLine
 10
10.0426432118878
 20
6.56812924248337
 30
0.0
 11
9.734322498305196
 21
6.876449956065977
 31
0.0
  0
LINE
  5
3DD
330
17
100
AcDbEntity
  8
PAPER
100
AcDbLine
 10
10.0426432118878
 20
6.73164099299923
 30
0.0
 11
9.734322498305196
 21
7.039961706581837
 31
0.0
  0
LINE
  5
3DE
330
17
100
AcDbEntity
  8
PAPER
100
AcDbLine
 10
10.0426432118878
 20
6.89515274351516
 30
0.0
 11
9.734322498305196
 21
7.203473457097767
 31
0.0
  0
LINE
  5
3DF
330
17
100
AcDbEntity
  8
PAPER
100
AcDbLine
 10
10.03184806355682
 20
6.088389139266639
 30
0.0
 11
9.734322498305196
 21
6.385914704518256
 31
0.0
  0
LINE
  5
3E0
330
17
100
AcDbEntity
  8
PAPER
100
AcDbLine
 10
9.868336313040916
 20
6.088389139266639
 30
0.0
 11
9.734322498305196
 21
6.222402954002326
 31
0.0
  0
CIRCLE
  5
3E1
330
17
100
AcDbEntity
  8
PAPER
100
AcDbCircle
 10
9.533818941509395
 20
6.83038024372101
 30
0.0
 40
0.0192700445989129
  0
CIRCLE
  5
3E2
330
17
100
AcDbEntity
  8
PAPER
100
AcDbCircle
 10
9.533818941509395
 20
6.83038024372101
 30
0.0
 40
0.144525334491847
  0
CIRCLE
  5
3E3
330
17
100
AcDbEntity
  8
PAPER
100
AcDbCircle
 10
9.533818941509395
 20
6.83038024372101
 30
0.0
 40
0.125255289892934
  0
CIRCLE
  5
3E4
330
17
100
AcDbEntity
  8
PAPER
100
AcDbCircle
 10
9.533818941509395
 20
6.83038024372101
 30
0.0
 40
0.1059852452940211
  0
LINE
  5
3E5
330
17
100
AcDbEntity
  8
PAPER
100
AcDbLine
 10
9.629017367173553
 20
7.203872615535766
 30
0.0
 11
6.829242791067542
 21
7.697548413204862
 31
0.0
  0
LINE
  5
3E6
330
17
100
AcDbEntity
  8
PAPER
100
AcDbLine
 10
9.642402199686198
 20
7.279781772823368
 30
0.0
 11
6.842627623580187
 21
7.773457570492464
 31
0.0
  0
LINE
  5
3E7
330
17
100
AcDbEntity
  8
PAPER
100
AcDbLine
 10
9.232798281109509
 20
7.384426185900368
 30
0.0
 11
9.552987458696843
 21
7.608625061700232
 31
0.0
  0
LINE
  5
3E8
330
17
100
AcDbEntity
  8
PAPER
100
AcDbLine
 10
9.151344944665083
 20
7.366368415956228
 30
0.0
 11
8.901247645565266
 21
7.723544375157223
 31
0.0
  0
LINE
  5
3E9
330
17
100
AcDbEntity
  8
PAPER
100
AcDbLine
 10
9.258696704409523
 20
7.347439404286752
 30
0.0
 11
9.008599405309698
 21
7.704615363487747
 31
0.0
  0
LINE
  5
3EA
330
17
100
AcDbEntity
  8
PAPER
100
AcDbLine
 10
8.536591913147155
 20
7.507186152713175
 30
0.0
 11
8.856781090734493
 21
7.731385028513039
 31
0.0
  0
LINE
  5
3EB
330
17
100
AcDbEntity
  8
PAPER
100
AcDbLine
 10
8.606956891277938
 20
7.462358717743742
 30
0.0
 11
8.927146068865262
 21
7.686557593543539
 31
0.0
  0
LINE
  5
3EC
330
17
100
AcDbEntity
  8
PAPER
100
AcDbLine
 10
8.455138576702733
 20
7.489128382769036
 30
0.0
 11
8.205041277602912
 21
7.846304341970031
 31
0.0
  0
LINE
  5
3ED
330
17
100
AcDbEntity
  8
PAPER
100
AcDbLine
 10
8.562490336447172
 20
7.470199371099559
 30
0.0
 11
8.312393037347352
 21
7.827375330300553
 31
0.0
  0
LINE
  5
3EE
330
17
100
AcDbEntity
  8
PAPER
100
AcDbLine
 10
7.840385545184814
 20
7.629946119525982
 30
0.0
 11
8.16057472277215
 21
7.854144995325848
 31
0.0
  0
LINE
  5
3EF
330
17
100
AcDbEntity
  8
PAPER
100
AcDbLine
 10
7.910750523315592
 20
7.585118684556549
 30
0.0
 11
8.230939700902919
 21
7.809317560356345
 31
0.0
  0
LINE
  5
3F0
330
17
100
AcDbEntity
  8
PAPER
100
AcDbLine
 10
7.758932208740388
 20
7.611888349581843
 30
0.0
 11
7.50883490964057
 21
7.969064308782838
 31
0.0
  0
LINE
  5
3F1
330
17
100
AcDbEntity
  8
PAPER
100
AcDbLine
 10
7.86628396848483
 20
7.592959337912366
 30
0.0
 11
7.616186669385011
 21
7.95013529711336
 31
0.0
  0
LINE
  5
3F2
330
17
100
AcDbEntity
  8
PAPER
100
AcDbLine
 10
7.144179177222464
 20
7.752706086338789
 30
0.0
 11
7.464368354809804
 21
7.976904962138653
 31
0.0
  0
LINE
  5
3F3
330
17
100
AcDbEntity
  8
PAPER
100
AcDbLine
 10
7.214544155353245
 20
7.707878651369356
 30
0.0
 11
7.534733332940573
 21
7.932077527169152
 31
0.0
  0
LINE
  5
3F4
330
17
100
AcDbEntity
  8
PAPER
100
AcDbLine
 10
7.062725840778042
 20
7.73464831639465
 30
0.0
 11
6.812628541678228
 21
8.091824275595644
 31
0.0
  0
LINE
  5
3F5
330
17
100
AcDbEntity
  8
PAPER
100
AcDbLine
 10
7.170077600522484
 20
7.715719304725173
 30
0.0
 11
6.91998030142266
 21
8.072895263926167
 31
0.0
  0
LINE
  5
3F6
330
17
100
AcDbEntity
  8
PAPER
100
AcDbLine
 10
6.742790878956156
 20
8.182407804195008
 30
0.0
 11
9.8510243035414
 21
7.63434238910076
 31
0.0
  0
LINE
  5
3F7
330
17
100
AcDbEntity
  8
PAPER
100
AcDbLine
 10
6.771370546412799
 20
8.099099173330881
 30
0.0
 11
9.837639471028751
 21
7.558433231813158
 31
0.0
  0
LINE
  5
3F8
330
17
100
AcDbEntity
  8
PAPER
100
AcDbLine
 10
9.837639471028751
 20
7.558433231813158
 30
0.0
 11
9.8510243035414
 21
7.63434238910076
 31
0.0
  0
LINE
  5
3F9
330
17
100
AcDbEntity
  8
PAPER
100
AcDbLine
 10
9.642402199686198
 20
7.279781772823368
 30
0.0
 11
9.629017367173553
 21
7.203872615535766
 31
0.0
  0
LINE
  5
3FA
330
17
100
AcDbEntity
  8
PAPER
100
AcDbLine
 10
9.355675000653185
 20
6.026730270058227
 30
0.0
 11
9.268788655045504
 21
6.026730270058227
 31
0.0
  0
LINE
  5
3FB
330
17
100
AcDbEntity
  8
PAPER
100
AcDbLine
 10
10.0426432118878
 20
7.719455738154964
 30
0.0
 11
9.873521620957454
 21
7.888577329085374
 31
0.0
  0
LINE
  5
3FC
330
17
100
AcDbEntity
  8
PAPER
100
AcDbLine
 10
10.0426432118878
 20
7.555943987639104
 30
0.0
 11
9.734322498305196
 21
7.864264701221712
 31
0.0
  0
LINE
  5
3FD
330
17
100
AcDbEntity
  8
PAPER
100
AcDbLine
 10
10.0426432118878
 20
7.392432237123174
 30
0.0
 11
9.8510243035414
 21
7.584051145469575
 31
0.0
  0
LINE
  5
3FE
330
17
100
AcDbEntity
  8
PAPER
100
AcDbLine
 10
10.0426432118878
 20
7.228920486607244
 30
0.0
 11
9.734322498305196
 21
7.537241200189851
 31
0.0
  0
LINE
  5
3FF
330
17
100
AcDbEntity
  8
PAPER
100
AcDbLine
 10
10.0426432118878
 20
7.065408736091384
 30
0.0
 11
9.734322498305196
 21
7.373729449673991
 31
0.0
  0
LINE
  5
400
330
17
100
AcDbEntity
  8
PAPER
100
AcDbLine
 10
9.789967012051626
 20
7.645108436959388
 30
0.0
 11
9.734322498305196
 21
7.700752950705781
 31
0.0
  0
LINE
  5
401
330
17
100
AcDbEntity
  8
PAPER
100
AcDbLine
 10
9.734322498305196
 20
7.647347566250079
 30
0.0
 11
9.734322498305196
 21
7.888577329085374
 31
0.0
  0
LINE
  5
402
330
17
100
AcDbEntity
  8
PAPER
100
AcDbLine
 10
9.297038464246337
 20
7.340678717539677
 30
0.0
 11
9.654214423447275
 21
7.590776016639506
 31
0.0
  0
POINT
  5
403
330
17
100
AcDbEntity
  8
PAPER
100
AcDbPoint
 10
9.616578374054583
 20
7.639022034165471
 30
0.0
  0
POINT
  5
404
330
17
100
AcDbEntity
  8
PAPER
100
AcDbPoint
 10
8.937460762437762
 20
7.758768792167809
 30
0.0
  0
POINT
  5
405
330
17
100
AcDbEntity
  8
PAPER
100
AcDbPoint
 10
8.242326226018658
 20
7.881339766160768
 30
0.0
  0
POINT
  5
406
330
17
100
AcDbEntity
  8
PAPER
100
AcDbPoint
 10
7.540571360681279
 20
8.005078082763185
 30
0.0
  0
POINT
  5
407
330
17
100
AcDbEntity
  8
PAPER
100
AcDbPoint
 10
6.867006282995919
 20
8.123845779222108
 30
0.0
  0
POINT
  5
408
330
17
100
AcDbEntity
  8
PAPER
100
AcDbPoint
 10
9.229106109619394
 20
7.312274214883228
 30
0.0
  0
POINT
  5
409
330
17
100
AcDbEntity
  8
PAPER
100
AcDbPoint
 10
8.52713768528465
 20
7.436050187698853
 30
0.0
  0
POINT
  5
40A
330
17
100
AcDbEntity
  8
PAPER
100
AcDbPoint
 10
7.837342123799642
 20
7.557679756361605
 30
0.0
  0
POINT
  5
40B
330
17
100
AcDbEntity
  8
PAPER
100
AcDbPoint
 10
7.138577084425349
 20
7.680890885979104
 30
0.0
  0
POINT
  5
40C
330
17
100
AcDbEntity
  8
PAPER
100
AcDbPoint
 10
9.702018757516452
 20
6.461943083447642
 30
0.0
  0
POINT
  5
40D
330
17
100
AcDbEntity
  8
PAPER
100
AcDbPoint
 10
8.777720795871701
 20
6.624921752299448
 30
0.0
  0
POINT
  5
40E
330
17
100
AcDbEntity
  8
PAPER
100
AcDbPoint
 10
7.334875345666246
 20
6.890334662636324
 30
0.0
  0
POINT
  5
40F
330
17
100
AcDbEntity
  8
PAPER
100
AcDbPoint
 10
7.284048304293667
 20
6.899296841379895
 30
0.0
  0
POINT
  5
410
330
17
100
AcDbEntity
  8
PAPER
100
AcDbPoint
 10
7.007441999246394
 20
6.941153135451383
 30
0.0
  0
POINT
  5
411
330
17
100
AcDbEntity
  8
PAPER
100
AcDbPoint
 10
9.710234942556553
 20
6.055590122277832
 30
0.0
  0
POINT
  5
412
330
17
100
AcDbEntity
  8
PAPER
100
AcDbPoint
 10
9.321045071792735
 20
6.051250483394677
 30
0.0
  0
POINT
  5
413
330
17
100
AcDbEntity
  8
PAPER
100
AcDbPoint
 10
9.710234942556553
 20
5.828817008428789
 30
0.0
  0
POINT
  5
414
330
17
100
AcDbEntity
  8
PAPER
100
AcDbPoint
 10
9.710234942556553
 20
5.77100687463205
 30
0.0
  0
POINT
  5
415
330
17
100
AcDbEntity
  8
PAPER
100
AcDbPoint
 10
9.505490718693103
 20
5.799911941530419
 30
0.0
  0
POINT
  5
416
330
17
100
AcDbEntity
  8
PAPER
100
AcDbPoint
 10
9.71093236579091
 20
5.109987529542014
 30
0.0
  0
POINT
  5
417
330
17
100
AcDbEntity
  8
PAPER
100
AcDbPoint
 10
9.71093236579091
 20
5.052177395745275
 30
0.0
  0
POINT
  5
418
330
17
100
AcDbEntity
  8
PAPER
100
AcDbPoint
 10
9.705971915576707
 20
4.279052834533853
 30
0.0
  0
POINT
  5
419
330
17
100
AcDbEntity
  8
PAPER
100
AcDbPoint
 10
9.707874838880975
 20
4.222674025220559
 30
0.0
  0
POINT
  5
41A
330
17
100
AcDbEntity
  8
PAPER
100
AcDbPoint
 10
9.700421722605931
 20
3.617573189960722
 30
0.0
  0
POINT
  5
41B
330
17
100
AcDbEntity
  8
PAPER
100
AcDbPoint
 10
9.697091606823462
 20
3.572137103130177
 30
0.0
  0
POINT
  5
41C
330
17
100
AcDbEntity
  8
PAPER
100
AcDbPoint
 10
9.702712665613962
 20
2.695482931842251
 30
0.0
  0
POINT
  5
41D
330
17
100
AcDbEntity
  8
PAPER
100
AcDbPoint
 10
9.701627053296938
 20
2.646300588207657
 30
0.0
  0
POINT
  5
41E
330
17
100
AcDbEntity
  8
PAPER
100
AcDbPoint
 10
9.697176042797149
 20
1.761561254259959
 30
0.0
  0
POINT
  5
41F
330
17
100
AcDbEntity
  8
PAPER
100
AcDbPoint
 10
9.696090430480126
 20
1.726601619270248
 30
0.0
  0
TEXT
  5
422
330
17
100
AcDbEntity
  8
PAPER
100
AcDbText
 10
7.871972219922304
 20
0.7541591501741602
 30
0.0
 40
0.06
  1
 
100
AcDbText
  0
SOLID
  5
426
330
17
100
AcDbEntity
  8
PAPER
100
AcDbTrace
 10
6.90083292010395
 20
7.302040240684149
 30
0.0
 11
6.912543648462914
 21
7.281858484423928
 31
0.0
 12
6.967233553064093
 22
7.327081547630939
 32
0.0
 13
6.967233553064093
 23
7.327081547630939
 33
0.0
  0
LINE
  5
427
330
17
100
AcDbEntity
  8
PAPER
100
AcDbLine
 10
6.906688284283433
 20
7.291949362554039
 30
0.0
 11
6.356444736938616
 21
6.972663338525967
 31
0.0
  0
INSERT
  5
428
330
17
100
AcDbEntity
  8
PAPER
100
AcDbBlockReference
  2
RECT
 10
0.3583906971413434
 20
7.629529403551753
 30
0.0
 41
0.09375
 42
0.09375
 43
0.09375
  0
INSERT
  5
429
330
17
100
AcDbEntity
  8
PAPER
100
AcDbBlockReference
  2
RECT
 10
0.3583906971413434
 20
7.485337614139749
 30
0.0
 41
0.09375
 42
0.09375
 43
0.09375
  0
TEXT
  5
42A
330
17
100
AcDbEntity
  8
PAPER
100
AcDbText
 10
0.496140539975119
 20
7.636877534831049
 30
0.0
 40
0.07
  1
BREAKAWAY 
  7
arial1
100
AcDbText
  0
TEXT
  5
42B
330
17
100
AcDbEntity
  8
PAPER
100
AcDbText
 10
5.853940045743998
 20
2.353369679719254
 30
0.0
 40
0.07
  1
BY OTHERS
  7
arial1
100
AcDbText
  0
INSERT
  5
42C
330
17
100
AcDbEntity
  8
PAPER
100
AcDbBlockReference
  2
RECT
 10
5.703964013994619
 20
2.337649787344796
 30
0.0
 41
0.09375
 42
0.09375
 43
0.09375
  0
INSERT
  5
42D
330
17
100
AcDbEntity
  8
PAPER
100
AcDbBlockReference
  2
RECT
 10
5.703964013994619
 20
2.48428092529687
 30
0.0
 41
0.09375
 42
0.09375
 43
0.09375
  0
INSERT
  5
42E
330
17
100
AcDbEntity
  8
PAPER
100
AcDbBlockReference
  2
RECT
 10
5.703964013994619
 20
2.630912063248945
 30
0.0
 41
0.09375
 42
0.09375
 43
0.09375
  0
TEXT
  5
42F
330
17
100
AcDbEntity
  8
PAPER
100
AcDbText
 10
5.853940045743998
 20
2.500000817671328
 30
0.0
 40
0.07
  1
CHAIN HOIST
  7
arial1
100
AcDbText
  0
TEXT
  5
430
330
17
100
AcDbEntity
  8
PAPER
100
AcDbText
 10
5.853940045743998
 20
2.64273524219614
 30
0.0
 40
0.07
  1
JACKSHAFT
  7
arial1
100
AcDbText
  0
TEXT
  5
431
330
17
100
AcDbEntity
  8
PAPER
100
AcDbText
 10
5.624952904665039
 20
3.012308042490504
 30
0.0
 40
0.07
  1
%%uOPERATOR:
  7
ARIAL2
100
AcDbText
  0
LINE
  5
432
330
17
100
AcDbEntity
  8
PAPER
100
AcDbLine
 10
5.484952904665038
 20
3.047308042490505
 30
0.0
 11
5.554952904665038
 21
3.047308042490505
 31
0.0
  0
LINE
  5
433
330
17
100
AcDbEntity
  8
PAPER
100
AcDbLine
 10
4.97861800530003
 20
2.585599522576505
 30
0.0
 11
5.484952904665038
 21
3.047308042490505
 31
0.0
  0
SOLID
  5
434
330
17
100
AcDbEntity
  8
PAPER
100
AcDbTrace
 10
4.986478933943572
 20
2.576978796854603
 30
0.0
 11
4.970757076656488
 21
2.594220248298406
 31
0.0
 12
4.926893650968623
 22
2.538433950715251
 32
0.0
 13
4.926893650968623
 23
2.538433950715251
 33
0.0
  0
LINE
  5
435
330
17
100
AcDbEntity
  8
PAPER
100
AcDbLine
 10
5.088604424612537
 20
2.734309987544974
 30
0.0
 11
5.088604424612537
 21
2.712142516462178
 31
0.0
  0
LINE
  5
436
330
17
100
AcDbEntity
  8
PAPER
100
AcDbLine
 10
4.55061449466863
 20
3.027330553017789
 30
0.0
 11
4.55061449466863
 21
2.910770567145217
 31
0.0
  0
LINE
  5
437
330
17
100
AcDbEntity
  8
PAPER
100
AcDbLine
 10
4.55061449466863
 20
2.910770567145217
 30
0.0
 11
4.584713461058017
 21
2.910770567145217
 31
0.0
  0
LINE
  5
438
330
17
100
AcDbEntity
  8
PAPER
100
AcDbLine
 10
4.584713461058017
 20
2.910770567145217
 30
0.0
 11
4.584713461058017
 21
3.027330553017789
 31
0.0
  0
LINE
  5
439
330
17
100
AcDbEntity
  8
PAPER
100
AcDbLine
 10
4.55061449466863
 20
2.774374701587661
 30
0.0
 11
4.55061449466863
 21
2.672077802419491
 31
0.0
  0
LINE
  5
43A
330
17
100
AcDbEntity
  8
PAPER
100
AcDbLine
 10
4.55061449466863
 20
2.672077802419491
 30
0.0
 11
4.584713461058017
 21
2.672077802419491
 31
0.0
  0
LINE
  5
43B
330
17
100
AcDbEntity
  8
PAPER
100
AcDbLine
 10
4.584713461058017
 20
2.672077802419491
 30
0.0
 11
4.584713461058017
 21
2.774374701587661
 31
0.0
  0
LINE
  5
43C
330
17
100
AcDbEntity
  8
PAPER
100
AcDbLine
 10
4.584713461058017
 20
2.774374701587661
 30
0.0
 11
4.55061449466863
 21
2.774374701587661
 31
0.0
  0
LINE
  5
43D
330
17
100
AcDbEntity
  8
PAPER
100
AcDbLine
 10
4.6529113938368
 20
2.842572634366434
 30
0.0
 11
4.6529113938368
 21
2.734309987544974
 31
0.0
  0
LINE
  5
43E
330
17
100
AcDbEntity
  8
PAPER
100
AcDbLine
 10
4.6529113938368
 20
2.399286071304378
 30
0.0
 11
5.028000024120072
 21
2.399286071304378
 31
0.0
  0
LINE
  5
43F
330
17
100
AcDbEntity
  8
PAPER
100
AcDbLine
 10
5.028000024120072
 20
2.399286071304378
 30
0.0
 11
5.028000024120072
 21
2.712142516462178
 31
0.0
  0
LINE
  5
440
330
17
100
AcDbEntity
  8
PAPER
100
AcDbLine
 10
5.028000024120072
 20
2.842572634366434
 30
0.0
 11
4.6529113938368
 21
2.842572634366434
 31
0.0
  0
LINE
  5
441
330
17
100
AcDbEntity
  8
PAPER
100
AcDbLine
 10
4.687010360226187
 20
2.842572634366434
 30
0.0
 11
4.687010360226187
 21
2.399286071304378
 31
0.0
  0
LINE
  5
442
330
17
100
AcDbEntity
  8
PAPER
100
AcDbLine
 10
4.993901057730686
 20
2.842572634366434
 30
0.0
 11
4.993901057730686
 21
2.399286071304378
 31
0.0
  0
LINE
  5
443
330
17
100
AcDbEntity
  8
PAPER
100
AcDbLine
 10
4.584713461058017
 20
2.734309987544974
 30
0.0
 11
4.687010360226176
 21
2.734309987544974
 31
0.0
  0
LINE
  5
444
330
17
100
AcDbEntity
  8
PAPER
100
AcDbLine
 10
4.584713461058017
 20
2.712142516462178
 30
0.0
 11
4.687010360226176
 21
2.712142516462178
 31
0.0
  0
LINE
  5
445
330
17
100
AcDbEntity
  8
PAPER
100
AcDbLine
 10
4.993901057730675
 20
2.734309987544974
 30
0.0
 11
5.088604424612537
 21
2.734309987544974
 31
0.0
  0
LINE
  5
446
330
17
100
AcDbEntity
  8
PAPER
100
AcDbLine
 10
4.993901057730675
 20
2.712142516462178
 30
0.0
 11
5.088604424612537
 21
2.712142516462178
 31
0.0
  0
LINE
  5
447
330
17
100
AcDbEntity
  8
PAPER
100
AcDbLine
 10
4.6529113938368
 20
2.712142516462178
 30
0.0
 11
4.6529113938368
 21
2.399286071304378
 31
0.0
  0
LINE
  5
448
330
17
100
AcDbEntity
  8
PAPER
100
AcDbLine
 10
5.028000024120072
 20
2.734309987544974
 30
0.0
 11
5.028000024120072
 21
2.842572634366434
 31
0.0
  0
LINE
  5
449
330
17
100
AcDbEntity
  8
PAPER
100
AcDbLine
 10
4.567663977863324
 20
2.910770567145217
 30
0.0
 11
4.567663977863324
 21
2.774374701587661
 31
0.0
  0
LINE
  5
44A
330
17
100
AcDbEntity
  8
PAPER
100
AcDbLine
 10
4.584713461058017
 20
3.027330553017789
 30
0.0
 11
4.55061449466863
 21
3.027330553017789
 31
0.0
  0
LINE
  5
44B
330
17
100
AcDbEntity
  8
PAPER
100
AcDbLine
 10
4.584713461058017
 20
2.987523452650501
 30
0.0
 11
4.785898796265497
 21
2.987523452650501
 31
0.0
  0
LINE
  5
44C
330
17
100
AcDbEntity
  8
PAPER
100
AcDbLine
 10
4.584713461058017
 20
2.950577667512508
 30
0.0
 11
4.785898796265497
 21
2.950577667512508
 31
0.0
  0
LINE
  5
44D
330
17
100
AcDbEntity
  8
PAPER
100
AcDbLine
 10
4.785898796265497
 20
2.987523452650501
 30
0.0
 11
4.785898796265497
 21
2.950577667512508
 31
0.0
  0
INSERT
  5
44F
330
17
100
AcDbEntity
  8
PAPER
100
AcDbBlockReference
  2
RECT
 10
3.143335296359472
 20
1.947952812585668
 30
0.0
 41
0.09375
 42
0.09375
 43
0.09375
  0
INSERT
  5
450
330
17
100
AcDbEntity
  8
PAPER
100
AcDbBlockReference
  2
RECT
 10
3.143335296359472
 20
2.094189871613659
 30
0.0
 41
0.09375
 42
0.09375
 43
0.09375
  0
INSERT
  5
451
330
17
100
AcDbEntity
  8
PAPER
100
AcDbBlockReference
  2
RECT
 10
3.143335296359472
 20
2.239452992729278
 30
0.0
 41
0.09375
 42
0.09375
 43
0.09375
  0
INSERT
  5
452
330
17
100
AcDbEntity
  8
PAPER
100
AcDbBlockReference
  2
RECT
 10
3.143335296359472
 20
2.383663360147706
 30
0.0
 41
0.09375
 42
0.09375
 43
0.09375
  0
TEXT
  5
453
330
17
100
AcDbEntity
  8
PAPER
100
AcDbText
 10
3.319192537270027
 20
1.960670058204469
 30
0.0
 40
0.07
  1
100,000 CYCLE
  7
arial1
100
AcDbText
  0
TEXT
  5
454
330
17
100
AcDbEntity
  8
PAPER
100
AcDbText
 10
3.319192537270027
 20
2.106025670544319
 30
0.0
 40
0.07
  1
50,000 CYCLE
  7
arial1
100
AcDbText
  0
TEXT
  5
455
330
17
100
AcDbEntity
  8
PAPER
100
AcDbText
 10
3.319192537270027
 20
2.250407344971797
 30
0.0
 40
0.07
  1
25,000 CYCLE
  7
arial1
100
AcDbText
  0
TEXT
  5
456
330
17
100
AcDbEntity
  8
PAPER
100
AcDbText
 10
3.319192537270027
 20
2.395762957311649
 30
0.0
 40
0.07
  1
10,000 CYCLE
  7
arial1
100
AcDbText
  0
LINE
  5
457
330
17
100
AcDbEntity
  8
PAPER
100
AcDbLine
 10
0.9135678838363725
 20
2.799237558923091
 30
0.0
 11
0.9135678838363725
 21
2.530944916310397
 31
0.0
  0
LINE
  5
458
330
17
100
AcDbEntity
  8
PAPER
100
AcDbLine
 10
0.9215287692874021
 20
2.799237558923091
 30
0.0
 11
0.9215287692874021
 21
2.530944916310397
 31
0.0
  0
LINE
  5
459
330
17
100
AcDbEntity
  8
PAPER
100
AcDbLine
 10
4.29699655677728
 20
2.799237558923091
 30
0.0
 11
4.29699655677728
 21
2.598580119080736
 31
0.0
  0
LINE
  5
45A
330
17
100
AcDbEntity
  8
PAPER
100
AcDbLine
 10
4.304957442228309
 20
2.799237558923091
 30
0.0
 11
4.304957442228309
 21
2.598580119080736
 31
0.0
  0
LINE
  5
45B
330
17
100
AcDbEntity
  8
PAPER
100
AcDbLine
 10
1.133348957653847
 20
2.950281980027373
 30
0.0
 11
1.490583299584043
 21
2.950281980027371
 31
0.0
  0
LINE
  5
45C
330
17
100
AcDbEntity
  8
PAPER
100
AcDbLine
 10
1.133348957653847
 20
2.987819140135635
 30
0.0
 11
1.490583299584043
 21
2.987819140135635
 31
0.0
  0
LWPOLYLINE
  5
45D
330
17
100
AcDbEntity
  8
PAPER
100
AcDbPolyline
 90
        4
 70
     1
 43
0.0
 10
4.325661806614556
 20
2.796614230834175
 10
4.325661806614556
 20
3.141486889328831
 10
4.311585371573958
 20
3.141486889328831
 10
4.311585371573958
 20
2.796614230834175
  0
LWPOLYLINE
  5
463
330
17
100
AcDbEntity
  8
PAPER
100
AcDbPolyline
 90
        4
 70
     1
 43
0.0
 10
4.100438845964984
 20
2.876380696064231
 10
4.100438845964984
 20
3.061720424098775
 10
4.086362410924386
 20
3.061720424098775
 10
4.086362410924386
 20
2.876380696064231
  0
ARC
  5
469
330
17
100
AcDbEntity
  8
PAPER
100
AcDbCircle
 10
4.168474948661209
 20
3.500729241927431
 30
0.0
 40
0.4558450613793435
100
AcDbArc
 50
261.4163785198861
 51
278.5836214801141
  0
ARC
  5
46A
330
17
100
AcDbEntity
  8
PAPER
100
AcDbCircle
 10
4.168474948661209
 20
2.437371878235577
 30
0.0
 40
0.4558450613793435
100
AcDbArc
 50
81.41637851988599
 51
98.583621480114
  0
LINE
  5
46B
330
17
100
AcDbEntity
  8
PAPER
100
AcDbLine
 10
4.311585371573958
 20
2.796614230834175
 30
0.0
 11
4.236511051357433
 21
2.888111058598063
 31
0.0
  0
LINE
  5
46C
330
17
100
AcDbEntity
  8
PAPER
100
AcDbLine
 10
4.236511051357433
 20
2.888111058598063
 30
0.0
 11
4.236511051357433
 21
3.049990061564943
 31
0.0
  0
LINE
  5
46D
330
17
100
AcDbEntity
  8
PAPER
100
AcDbLine
 10
4.236511051357433
 20
3.049990061564943
 30
0.0
 11
4.311585371573958
 21
3.141486889328831
 31
0.0
  0
LINE
  5
46E
330
17
100
AcDbEntity
  8
PAPER
100
AcDbLine
 10
0.9832003172207999
 20
3.049990061564943
 30
0.0
 11
0.9081259970042761
 21
3.141486889328831
 31
0.0
  0
LINE
  5
46F
330
17
100
AcDbEntity
  8
PAPER
100
AcDbLine
 10
0.9832003172207999
 20
2.888111058598063
 30
0.0
 11
0.9832003172207999
 21
3.049990061564943
 31
0.0
  0
LINE
  5
470
330
17
100
AcDbEntity
  8
PAPER
100
AcDbLine
 10
0.9081259970042761
 20
2.796614230834175
 30
0.0
 11
0.9832003172207999
 21
2.888111058598063
 31
0.0
  0
ARC
  5
471
330
17
100
AcDbEntity
  8
PAPER
100
AcDbCircle
 10
1.051236419917024
 20
2.437371878235577
 30
0.0
 40
0.4558450613793435
100
AcDbArc
 50
81.41637851988601
 51
98.58362148011401
  0
ARC
  5
472
330
17
100
AcDbEntity
  8
PAPER
100
AcDbCircle
 10
1.051236419917024
 20
3.500729241927429
 30
0.0
 40
0.4558450613793435
100
AcDbArc
 50
261.416378519886
 51
278.583621480114
  0
LWPOLYLINE
  5
473
330
17
100
AcDbEntity
  8
PAPER
100
AcDbPolyline
 90
        4
 70
     1
 43
0.0
 10
1.119272522613249
 20
2.876380696064231
 10
1.119272522613249
 20
3.061720424098775
 10
1.133348957653847
 20
3.061720424098775
 10
1.133348957653847
 20
2.876380696064231
  0
LWPOLYLINE
  5
479
330
17
100
AcDbEntity
  8
PAPER
100
AcDbPolyline
 90
        4
 70
     1
 43
0.0
 10
0.8940495619636779
 20
2.796614230834175
 10
0.8940495619636779
 20
3.141486889328831
 10
0.9081259970042761
 20
3.141486889328831
 10
0.9081259970042761
 20
2.796614230834175
  0
LINE
  5
47F
330
17
100
AcDbEntity
  8
PAPER
  6
CENTER
100
AcDbLine
 10
0.2666299866748156
 20
2.969050560081504
 30
0.0
 11
5.011688866180833
 21
2.969050560081504
 31
0.0
  0
LINE
  5
480
330
17
100
AcDbEntity
  8
PAPER
100
AcDbLine
 10
0.6688266013141062
 20
2.987819140135635
 30
0.0
 11
0.8940495619636777
 21
2.987819140135635
 31
0.0
  0
LINE
  5
481
330
17
100
AcDbEntity
  8
PAPER
100
AcDbLine
 10
0.6688266013141062
 20
2.950281980027371
 30
0.0
 11
0.8940495619636777
 21
2.950281980027371
 31
0.0
  0
LINE
  5
482
330
17
100
AcDbEntity
  8
PAPER
100
AcDbLine
 10
0.6688266013141062
 20
2.950281980027371
 30
0.0
 11
0.6688266013141062
 21
2.987819140135635
 31
0.0
  0
LINE
  5
483
330
17
100
AcDbEntity
  8
PAPER
100
AcDbLine
 10
4.550884767264127
 20
2.950281980027371
 30
0.0
 11
4.550884767264128
 21
2.987819140135635
 31
0.0
  0
LINE
  5
484
330
17
100
AcDbEntity
  8
PAPER
100
AcDbLine
 10
4.325661806614557
 20
2.950281980027371
 30
0.0
 11
4.550884767264128
 21
2.950281980027371
 31
0.0
  0
LINE
  5
485
330
17
100
AcDbEntity
  8
PAPER
100
AcDbLine
 10
4.325661806614557
 20
2.987819140135635
 30
0.0
 11
4.550884767264128
 21
2.987819140135635
 31
0.0
  0
LINE
  5
486
330
17
100
AcDbEntity
  8
PAPER
100
AcDbLine
 10
2.590414804626906
 20
3.081662040406289
 30
0.0
 11
2.590414804626906
 21
2.856439079756717
 31
0.0
  0
LINE
  5
487
330
17
100
AcDbEntity
  8
PAPER
100
AcDbLine
 10
2.597453022147204
 20
2.861862271945675
 30
0.0
 11
2.608010348427654
 21
2.861862271945675
 31
0.0
  0
LINE
  5
488
330
17
100
AcDbEntity
  8
PAPER
100
AcDbLine
 10
2.597453022147204
 20
3.076238848217331
 30
0.0
 11
2.608010348427654
 21
3.076238848217331
 31
0.0
  0
LINE
  5
489
330
17
100
AcDbEntity
  8
PAPER
100
AcDbLine
 10
2.608010348427654
 20
3.076238848217331
 30
0.0
 11
2.608010348427654
 21
2.861862271945675
 31
0.0
  0
LINE
  5
48A
330
17
100
AcDbEntity
  8
PAPER
100
AcDbLine
 10
2.608010348427654
 20
2.885042395759212
 30
0.0
 11
3.697284527190068
 21
2.885042395759212
 31
0.0
  0
LINE
  5
48B
330
17
100
AcDbEntity
  8
PAPER
100
AcDbLine
 10
2.608010348427654
 20
3.053058724403794
 30
0.0
 11
3.697284527190068
 21
3.053058724403794
 31
0.0
  0
LINE
  5
48C
330
17
100
AcDbEntity
  8
PAPER
100
AcDbLine
 10
3.697284527190068
 20
2.950281980027371
 30
0.0
 11
4.086362410924386
 21
2.950281980027371
 31
0.0
  0
LINE
  5
48D
330
17
100
AcDbEntity
  8
PAPER
100
AcDbLine
 10
3.697284527190068
 20
2.987819140135635
 30
0.0
 11
4.086362410924386
 21
2.987819140135636
 31
0.0
  0
LINE
  5
48E
330
17
100
AcDbEntity
  8
PAPER
100
AcDbLine
 10
3.697284527190068
 20
3.053058724403794
 30
0.0
 11
3.697284527190068
 21
2.885042395759212
 31
0.0
  0
LINE
  5
48F
330
17
100
AcDbEntity
  8
PAPER
100
AcDbLine
 10
3.654739642551443
 20
3.053058724403794
 30
0.0
 11
3.654739642551444
 21
2.885042395759212
 31
0.0
  0
LINE
  5
490
330
17
100
AcDbEntity
  8
PAPER
100
AcDbLine
 10
2.608010348427654
 20
2.885042395759212
 30
0.0
 11
2.653682280724002
 21
3.053058724403794
 31
0.0
  0
LINE
  5
491
330
17
100
AcDbEntity
  8
PAPER
100
AcDbLine
 10
2.641471766316524
 20
2.885042395759212
 30
0.0
 11
2.687143698612872
 21
3.053058724403794
 31
0.0
  0
LINE
  5
492
330
17
100
AcDbEntity
  8
PAPER
100
AcDbLine
 10
2.671970708904487
 20
2.885042395759212
 30
0.0
 11
2.717642641200835
 21
3.053058724403794
 31
0.0
  0
LINE
  5
493
330
17
100
AcDbEntity
  8
PAPER
100
AcDbLine
 10
2.702469651492449
 20
2.885042395759212
 30
0.0
 11
2.748141583788798
 21
3.053058724403794
 31
0.0
  0
LINE
  5
494
330
17
100
AcDbEntity
  8
PAPER
100
AcDbLine
 10
3.633860436678699
 20
2.885042395759212
 30
0.0
 11
3.654739642551443
 21
2.961852097897289
 31
0.0
  0
LINE
  5
495
330
17
100
AcDbEntity
  8
PAPER
100
AcDbLine
 10
3.608053639104269
 20
2.885042395759212
 30
0.0
 11
3.653725571400618
 21
3.053058724403794
 31
0.0
  0
LINE
  5
496
330
17
100
AcDbEntity
  8
PAPER
100
AcDbLine
 10
3.584592914036605
 20
2.885042395759212
 30
0.0
 11
3.630264846332954
 21
3.053058724403794
 31
0.0
  0
LINE
  5
497
330
17
100
AcDbEntity
  8
PAPER
100
AcDbLine
 10
3.558786116462175
 20
2.885042395759212
 30
0.0
 11
3.604458048758523
 21
3.053058724403794
 31
0.0
  0
LINE
  5
498
330
17
100
AcDbEntity
  8
PAPER
100
AcDbLine
 10
2.608010348427654
 20
2.994973252070604
 30
0.0
 11
2.62379974093018
 21
3.053058724403794
 31
0.0
  0
LINE
  5
499
330
17
100
AcDbEntity
  8
PAPER
100
AcDbLine
 10
2.579857478346457
 20
3.076238848217331
 30
0.0
 11
2.579857478346457
 21
2.861862271945675
 31
0.0
  0
LINE
  5
49A
330
17
100
AcDbEntity
  8
PAPER
100
AcDbLine
 10
2.590414804626906
 20
3.076238848217331
 30
0.0
 11
2.579857478346457
 21
3.076238848217331
 31
0.0
  0
LINE
  5
49B
330
17
100
AcDbEntity
  8
PAPER
100
AcDbLine
 10
2.590414804626906
 20
2.861862271945675
 30
0.0
 11
2.579857478346457
 21
2.861862271945675
 31
0.0
  0
LINE
  5
49C
330
17
100
AcDbEntity
  8
PAPER
100
AcDbLine
 10
2.579857478346457
 20
2.885042395759212
 30
0.0
 11
1.490583299584043
 21
2.885042395759212
 31
0.0
  0
LINE
  5
49D
330
17
100
AcDbEntity
  8
PAPER
100
AcDbLine
 10
2.579857478346457
 20
3.053058724403794
 30
0.0
 11
1.490583299584043
 21
3.053058724403794
 31
0.0
  0
LINE
  5
49E
330
17
100
AcDbEntity
  8
PAPER
100
AcDbLine
 10
1.490583299584043
 20
3.053058724403794
 30
0.0
 11
1.490583299584042
 21
2.885042395759212
 31
0.0
  0
LINE
  5
49F
330
17
100
AcDbEntity
  8
PAPER
100
AcDbLine
 10
1.533128184222667
 20
3.053058724403794
 30
0.0
 11
1.533128184222666
 21
2.885042395759212
 31
0.0
  0
LINE
  5
4A0
330
17
100
AcDbEntity
  8
PAPER
100
AcDbLine
 10
1.533128184222666
 20
2.994973252070604
 30
0.0
 11
1.548917576725193
 21
3.053058724403794
 31
0.0
  0
LINE
  5
4A1
330
17
100
AcDbEntity
  8
PAPER
100
AcDbLine
 10
2.483903952257188
 20
2.885042395759212
 30
0.0
 11
2.529575884553536
 21
3.053058724403794
 31
0.0
  0
LINE
  5
4A2
330
17
100
AcDbEntity
  8
PAPER
100
AcDbLine
 10
2.509710749831619
 20
2.885042395759212
 30
0.0
 11
2.555382682127966
 21
3.053058724403794
 31
0.0
  0
LINE
  5
4A3
330
17
100
AcDbEntity
  8
PAPER
100
AcDbLine
 10
2.533171474899282
 20
2.885042395759212
 30
0.0
 11
2.57884340719563
 21
3.053058724403794
 31
0.0
  0
LINE
  5
4A4
330
17
100
AcDbEntity
  8
PAPER
100
AcDbLine
 10
1.627587487287463
 20
2.885042395759212
 30
0.0
 11
1.673259419583811
 21
3.053058724403794
 31
0.0
  0
LINE
  5
4A5
330
17
100
AcDbEntity
  8
PAPER
100
AcDbLine
 10
1.5970885446995
 20
2.885042395759212
 30
0.0
 11
1.642760476995848
 21
3.053058724403794
 31
0.0
  0
LINE
  5
4A6
330
17
100
AcDbEntity
  8
PAPER
100
AcDbLine
 10
1.566589602111537
 20
2.885042395759212
 30
0.0
 11
1.612261534407885
 21
3.053058724403794
 31
0.0
  0
LINE
  5
4A7
330
17
100
AcDbEntity
  8
PAPER
100
AcDbLine
 10
1.533128184222666
 20
2.885042395759212
 30
0.0
 11
1.578800116519015
 21
3.053058724403794
 31
0.0
  0
LINE
  5
4A8
330
17
100
AcDbEntity
  8
PAPER
100
AcDbLine
 10
2.558978272473712
 20
2.885042395759212
 30
0.0
 11
2.579857478346456
 21
2.961852097897289
 31
0.0
  0
LWPOLYLINE
  5
4A9
330
17
100
AcDbEntity
  8
PAPER
100
AcDbPolyline
 90
        2
 70
     0
 43
0.0
 10
2.522378701930681
 20
3.053058724403794
 10
2.522378701930681
 20
3.081662040406289
  0
LWPOLYLINE
  5
4AD
330
17
100
AcDbEntity
  8
PAPER
100
AcDbPolyline
 90
        5
 70
     0
 43
0.0
 10
2.522378701930681
 20
3.081662040406289
 10
2.597453022147205
 20
3.081662040406289
 10
2.597453022147205
 20
2.856439079756717
 10
2.522378701930681
 20
2.856439079756717
 10
2.522378701930681
 20
2.885042395759212
  0
LINE
  5
4B4
330
17
100
AcDbEntity
  8
PAPER
100
AcDbLine
 10
6.688160050331876
 20
6.026573009514136
 30
0.0
 11
6.618160050331876
 21
6.026573009514136
 31
0.0
  0
LINE
  5
4B5
330
17
100
AcDbEntity
  8
PAPER
100
AcDbLine
 10
7.161200689380261
 20
6.641533211855739
 30
0.0
 11
6.688160050331876
 21
6.026573009514136
 31
0.0
  0
SOLID
  5
4B6
330
17
100
AcDbEntity
  8
PAPER
100
AcDbTrace
 10
7.151953368299944
 20
6.648646450495673
 30
0.0
 11
7.170448010460577
 21
6.634419973215805
 31
0.0
 12
7.203880121219868
 22
6.697017138337636
 32
0.0
 13
7.203880121219868
 23
6.697017138337636
 33
0.0
  0
LINE
  5
4B7
330
17
100
AcDbEntity
  8
PAPER
100
AcDbLine
 10
6.353681476692102
 20
7.910285767109519
 30
0.0
 11
6.040013092392665
 21
7.910285767109519
 31
0.0
  0
LINE
  5
4B8
330
17
100
AcDbEntity
  8
PAPER
100
AcDbLine
 10
7.736648677682969
 20
7.130214056861772
 30
0.0
 11
6.353681476692102
 21
7.910285767109519
 31
0.0
  0
SOLID
  5
4B9
330
17
100
AcDbEntity
  8
PAPER
100
AcDbTrace
 10
7.742380403499338
 20
7.140375672396572
 30
0.0
 11
7.7309169518666
 21
7.120052441326973
 31
0.0
 12
7.797618370891766
 22
7.095823701963558
 32
0.0
 13
7.797618370891766
 23
7.095823701963558
 33
0.0
  0
TEXT
  5
4BA
330
17
100
AcDbEntity
  8
PAPER
100
AcDbText
 10
10.41780530456713
 20
3.529484779380703
 30
0.0
 40
0.07
  1
DOOR HEIGHT + HI-LIFT"
 50
90.0
  7
arial1
 72
     4
 11
10.38278143007873
 21
4.113239895342504
 31
0.0
100
AcDbText
  0
TEXT
  5
4BE
330
17
100
AcDbEntity
  8
PAPER
100
AcDbText
 10
0.3161984529789921
 20
8.098443037632229
 30
0.0
 40
0.125
  1
%%uHIGH-LIFT FOLLOW-THE-ROOF TRACK
  7
ARIALB
 72
     1
 11
2.14481373265157
 21
8.098443037632229
 31
0.0
100
AcDbText
  0
TEXT
  5
4BF
330
17
100
AcDbEntity
  8
PAPER
100
AcDbText
 10
0.6750500343700459
 20
2.188623895040345
 30
0.0
 40
0.07
  1
(PADS MUST BE FLUSH WITH JAMBS)
  7
arial1
100
AcDbText
  0
TEXT
  5
4C0
330
17
100
AcDbEntity
  8
PAPER
100
AcDbText
 10
2.819237923487201
 20
3.633020990593863
 30
0.0
 40
0.07
  1
CENTER SUPPORT BRACKET:
  7
arial1
100
AcDbText
  0
LINE
  5
4C1
330
17
100
AcDbEntity
  8
PAPER
100
AcDbLine
 10
2.679237923487201
 20
3.668020990593863
 30
0.0
 11
2.749237923487201
 21
3.668020990593863
 31
0.0
  0
LINE
  5
4C2
330
17
100
AcDbEntity
  8
PAPER
100
AcDbLine
 10
2.572161594711753
 20
3.168331456308444
 30
0.0
 11
2.679237923487201
 21
3.668020990593863
 31
0.0
  0
SOLID
  5
4C3
330
17
100
AcDbEntity
  8
PAPER
100
AcDbTrace
 10
2.583569289542657
 20
3.165886950273251
 30
0.0
 11
2.560753899880851
 21
3.170775962343637
 31
0.0
 12
2.557494558500593
 22
3.099885287323024
 32
0.0
 13
2.557494558500593
 23
3.099885287323024
 33
0.0
  0
TEXT
  5
4C4
330
17
100
AcDbEntity
  8
PAPER
100
AcDbText
 10
3.208830058800143
 20
3.362269335791693
 30
0.0
 40
0.07
  1
CABLE DRUM:
  7
arial1
100
AcDbText
  0
LINE
  5
4C5
330
17
100
AcDbEntity
  8
PAPER
100
AcDbLine
 10
4.02549672546681
 20
3.397269335791693
 30
0.0
 11
3.95549672546681
 21
3.397269335791693
 31
0.0
  0
LINE
  5
4C6
330
17
100
AcDbEntity
  8
PAPER
100
AcDbLine
 10
4.133844054084409
 20
3.137235747109454
 30
0.0
 11
4.02549672546681
 21
3.397269335791693
 31
0.0
  0
SOLID
  5
4C7
330
17
100
AcDbEntity
  8
PAPER
100
AcDbTrace
 10
4.144613284853639
 20
3.141722926596634
 30
0.0
 11
4.123074823315178
 21
3.132748567622274
 31
0.0
 12
4.160767131007486
 22
3.072620362494069
 32
0.0
 13
4.160767131007486
 23
3.072620362494069
 33
0.0
  0
TEXT
  5
4C8
330
17
100
AcDbEntity
  8
PAPER
100
AcDbText
 10
1.57517454831283
 20
3.369138277929137
 30
0.0
 40
0.07
  1
1" O.D. SHAFT:
  7
arial1
100
AcDbText
  0
LINE
  5
4C9
330
17
100
AcDbEntity
  8
PAPER
100
AcDbLine
 10
1.435174548312829
 20
3.404138277929137
 30
0.0
 11
1.50517454831283
 21
3.404138277929137
 31
0.0
  0
LINE
  5
4CA
330
17
100
AcDbEntity
  8
PAPER
100
AcDbLine
 10
1.287155541744352
 20
3.062555955078805
 30
0.0
 11
1.435174548312829
 21
3.404138277929137
 31
0.0
  0
SOLID
  5
4CB
330
17
100
AcDbEntity
  8
PAPER
100
AcDbTrace
 10
1.297860357372968
 20
3.057917201639738
 30
0.0
 11
1.276450726115736
 21
3.067194708517871
 31
0.0
 12
1.259323021109951
 22
2.99832706130711
 32
0.0
 13
1.259323021109951
 23
2.99832706130711
 33
0.0
  0
TEXT
  5
4CC
330
17
100
AcDbEntity
  8
PAPER
100
AcDbText
 10
3.150544328111895
 20
2.530883451018589
 30
0.0
 40
0.07
  1
%%uTORSION SPRINGS:
  7
ARIAL2
100
AcDbText
  0
LINE
  5
4CD
330
17
100
AcDbEntity
  8
PAPER
100
AcDbLine
 10
3.010544328111895
 20
2.565883451018589
 30
0.0
 11
3.080544328111895
 21
2.565883451018589
 31
0.0
  0
LINE
  5
4CE
330
17
100
AcDbEntity
  8
PAPER
100
AcDbLine
 10
2.912511325904379
 20
2.83819734603947
 30
0.0
 11
3.010544328111896
 21
2.565883451018589
 31
0.0
  0
SOLID
  5
4CF
330
17
100
AcDbEntity
  8
PAPER
100
AcDbTrace
 10
2.901534306099244
 20
2.834245618909621
 30
0.0
 11
2.923488345709514
 21
2.842149073169318
 31
0.0
 12
2.888800963125287
 22
2.904059464870281
 32
0.0
 13
2.888800963125287
 23
2.904059464870281
 33
0.0
  0
LINE
  5
4D0
330
17
100
AcDbEntity
  8
PAPER
100
AcDbLine
 10
2.298523612952001
 20
2.339900261729585
 30
0.0
 11
2.228523612952001
 21
2.339900261729585
 31
0.0
  0
LINE
  5
4D1
330
17
100
AcDbEntity
  8
PAPER
100
AcDbLine
 10
2.438861467061264
 20
2.70554169038599
 30
0.0
 11
2.298523612952001
 21
2.339900261729585
 31
0.0
  0
SOLID
  5
4D2
330
17
100
AcDbEntity
  8
PAPER
100
AcDbTrace
 10
2.427969508661561
 20
2.709722163245638
 30
0.0
 11
2.449753425460966
 21
2.70136121752634
 31
0.0
 12
2.463944304219161
 22
2.770893440784203
 32
0.0
 13
2.463944304219161
 23
2.770893440784203
 33
0.0
  0
INSERT
  5
4D3
330
17
100
AcDbEntity
  8
PAPER
100
AcDbBlockReference
  2
RECT
 10
0.693289683455723
 20
1.716010024024757
 30
0.0
 41
0.09375
 42
0.09375
 43
0.09375
  0
INSERT
  5
4D4
330
17
100
AcDbEntity
  8
PAPER
100
AcDbBlockReference
  2
RECT
 10
0.693289683455723
 20
1.996061085483995
 30
0.0
 41
0.09375
 42
0.09375
 43
0.09375
  0
TEXT
  5
4D5
330
17
100
AcDbEntity
  8
PAPER
100
AcDbText
 10
0.8388124347785408
 20
1.767866789575534
 30
0.0
 40
0.07
  1
WOOD - 2" x 6" LUMBER x 12"
  7
arial1
100
AcDbText
  0
TEXT
  5
4D6
330
17
100
AcDbEntity
  8
PAPER
100
AcDbText
 10
0.8388124347785408
 20
2.048406110092764
 30
0.0
 40
0.07
  1
STEEL - 10"W x 12"H x 1/4"
  7
arial1
100
AcDbText
  0
TEXT
  5
4D7
330
17
100
AcDbEntity
  8
PAPER
100
AcDbText
 10
0.6750500343700459
 20
2.305290561707012
 30
0.0
 40
0.07
  1
%%uSPRING PAD - BY OTHERS:
  7
ARIAL2
100
AcDbText
  0
LINE
  5
4D8
330
17
100
AcDbEntity
  8
PAPER
100
AcDbLine
 10
4.261851312454608
 20
3.235510803367452
 30
0.0
 11
4.704738245704822
 21
3.235510803367452
 31
0.0
  0
LINE
  5
4D9
330
17
100
AcDbEntity
  8
PAPER
100
AcDbLine
 10
4.261851312454608
 20
3.080873504777125
 30
0.0
 11
4.261851312454608
 21
3.235510803367452
 31
0.0
  0
LINE
  5
4DA
330
17
100
AcDbEntity
  8
PAPER
100
AcDbLine
 10
4.261851312454608
 20
2.552356410464521
 30
0.0
 11
4.261851312454608
 21
2.857227615385881
 31
0.0
  0
CIRCLE
  5
4DB
330
17
100
AcDbEntity
  8
PAPER
100
AcDbCircle
 10
4.342549939025604
 20
2.905415659339013
 30
0.0
 40
0.0082700277068097
  0
CIRCLE
  5
4DC
330
17
100
AcDbEntity
  8
PAPER
100
AcDbCircle
 10
4.342549939025604
 20
3.034428091565264
 30
0.0
 40
0.0082700277068097
  0
LWPOLYLINE
  5
4DD
330
17
100
AcDbEntity
  8
PAPER
100
AcDbPolyline
 90
        3
 70
     0
 43
0.0
 10
4.326011660181804
 20
3.064200191309784
 10
4.364049701522544
 20
3.064200191309784
 10
4.364049701522544
 20
2.988018587511446
  0
LWPOLYLINE
  5
4E2
330
17
100
AcDbEntity
  8
PAPER
100
AcDbPolyline
 90
        3
 70
     0
 43
0.0
 10
4.364049701522544
 20
2.950518587511444
 10
4.364049701522544
 20
2.877297565135857
 10
4.326011660181804
 20
2.877297565135857
  0
LWPOLYLINE
  5
4E7
330
17
100
AcDbEntity
  8
PAPER
100
AcDbPolyline
 90
        3
 70
     0
 43
0.0
 10
0.8522357748256887
 20
2.950518587511444
 10
0.8522357748256885
 20
2.877297565135857
 10
0.8902738161664284
 20
2.877297565135857
  0
LWPOLYLINE
  5
4EC
330
17
100
AcDbEntity
  8
PAPER
100
AcDbPolyline
 90
        3
 70
     0
 43
0.0
 10
0.8902738161664284
 20
3.064200191309784
 10
0.8522357748256885
 20
3.064200191309784
 10
0.8522357748256887
 20
2.988018587511446
  0
CIRCLE
  5
4F1
330
17
100
AcDbEntity
  8
PAPER
100
AcDbCircle
 10
0.8737355373226284
 20
3.034428091565264
 30
0.0
 40
0.0082700277068097
  0
CIRCLE
  5
4F2
330
17
100
AcDbEntity
  8
PAPER
100
AcDbCircle
 10
0.8737355373226284
 20
2.905415659339013
 30
0.0
 40
0.0082700277068097
  0
LINE
  5
4F3
330
17
100
AcDbEntity
  8
PAPER
100
AcDbLine
 10
0.954434163893624
 20
3.085048810932438
 30
0.0
 11
0.954434163893624
 21
3.235510803367452
 31
0.0
  0
LINE
  5
4F4
330
17
100
AcDbEntity
  8
PAPER
100
AcDbLine
 10
0.954434163893624
 20
3.235510803367452
 30
0.0
 11
0.5115472306434108
 21
3.235510803367452
 31
0.0
  0
LINE
  5
4F5
330
17
100
AcDbEntity
  8
PAPER
100
AcDbLine
 10
0.954434163893624
 20
2.484721207694183
 30
0.0
 11
0.954434163893624
 21
2.853052309230568
 31
0.0
  0
LWPOLYLINE
  5
4F6
330
17
100
AcDbEntity
  8
PAPER
100
AcDbPolyline
 90
        2
 70
     0
 43
0.0
 10
2.809915862038943
 20
3.053193587511444
 10
2.809915862038943
 20
3.218730631161627
  0
LWPOLYLINE
  5
4FA
330
17
100
AcDbEntity
  8
PAPER
100
AcDbPolyline
 90
        4
 70
     0
 43
0.0
 10
2.309915862038943
 20
2.885343587511444
 10
2.309915862038943
 20
2.718730631161627
 10
2.809915862038943
 20
2.718730631161627
 10
2.809915862038943
 20
2.885343587511446
  0
LWPOLYLINE
  5
500
330
17
100
AcDbEntity
  8
PAPER
100
AcDbPolyline
 90
        3
 70
     0
 43
0.0
 10
2.809915862038943
 20
3.218730631161627
 10
2.309915862038943
 20
3.218730631161627
 10
2.309915862038943
 20
3.053193587511446
  0
TEXT
  5
505
330
17
100
AcDbEntity
  8
PAPER
100
AcDbText
 10
5.330271213913892
 20
6.820996671859301
 30
0.0
 40
0.07
  1
(SUPPLIED BY INSTALLER)
  7
arial1
100
AcDbText
  0
TEXT
  5
506
330
17
100
AcDbEntity
  8
PAPER
100
AcDbText
 10
5.330271213913892
 20
6.937663338525967
 30
0.0
 40
0.07
  1
REAR HANGER:
  7
ARIAL2
100
AcDbText
  0
LINE
  5
507
330
17
100
AcDbEntity
  8
PAPER
100
AcDbLine
 10
6.356444736938616
 20
6.972663338525967
 30
0.0
 11
6.206844671525966
 21
6.972663338525967
 31
0.0
  0
TEXT
  5
508
330
17
100
AcDbEntity
  8
PAPER
100
AcDbText
 10
7.29305742172661
 20
4.572185090873563
 30
0.0
 40
0.07
  1
DOOR HEIGHT + 38" - HI-LIFT (3" TRACK)
  7
arial1
 72
     4
 11
8.244646780526064
 21
4.597515923070016
 31
0.0
100
AcDbText
  0
TEXT
  5
509
330
17
100
AcDbEntity
  8
PAPER
100
AcDbText
 10
7.29305742172661
 20
4.688851757540231
 30
0.0
 40
0.07
  1
DOOR HEIGHT + 35" - HI-LIFT (2" TRACK)
  7
arial1
 72
     4
 11
8.244646780526064
 21
4.714182589736683
 31
0.0
100
AcDbText
  0
TEXT
  5
50B
330
17
100
AcDbEntity
  8
PAPER
100
AcDbText
 10
8.009162750091842
 20
7.038666538780103
 30
0.0
 40
0.07
  1
13 GA. MIN.
  7
arial1
100
AcDbText
  0
TEXT
  5
50C
330
17
100
AcDbEntity
  8
PAPER
100
AcDbText
 10
8.009162750091842
 20
7.155333205446769
 30
0.0
 40
0.07
  1
%%UHORIZONTAL ANGLE:
  7
ARIAL2
100
AcDbText
  0
LINE
  5
50D
330
17
100
AcDbEntity
  8
PAPER
100
AcDbLine
 10
9.223019430819295
 20
7.190333205446769
 30
0.0
 11
9.152496083425177
 21
7.190333205446769
 31
0.0
  0
LINE
  5
50E
330
17
100
AcDbEntity
  8
PAPER
100
AcDbLine
 10
9.331514623747573
 20
6.652197048522506
 30
0.0
 11
9.223019430819292
 21
7.190333205446769
 31
0.0
  0
SOLID
  5
50F
330
17
100
AcDbEntity
  8
PAPER
100
AcDbTrace
 10
9.342951170565346
 20
6.654502803929314
 30
0.0
 11
9.320078076929803
 21
6.649891293115697
 31
0.0
 12
9.345349156188426
 22
6.583577767615875
 32
0.0
 13
9.345349156188426
 23
6.583577767615875
 33
0.0
  0
TEXT
  5
510
330
17
100
AcDbEntity
  8
PAPER
100
AcDbText
 10
8.153287269324597
 20
2.624240621261582
 30
0.0
 40
0.07
  1
16 GA. MIN. 
  7
arial1
100
AcDbText
  0
TEXT
  5
511
330
17
100
AcDbEntity
  8
PAPER
100
AcDbText
 10
8.153287269324597
 20
2.526016848241964
 30
0.0
 40
0.07
  1
2" TRACK
  7
arial1
100
AcDbText
  0
TEXT
  5
512
330
17
100
AcDbEntity
  8
PAPER
100
AcDbText
 10
8.153287269324597
 20
2.39090728792825
 30
0.0
 40
0.07
  1
12 GA.
  7
arial1
100
AcDbText
  0
TEXT
  5
513
330
17
100
AcDbEntity
  8
PAPER
100
AcDbText
 10
8.153287269324597
 20
2.292683514908631
 30
0.0
 40
0.07
  1
3" TRACK
  7
arial1
100
AcDbText
  0
INSERT
  5
514
330
17
100
AcDbEntity
  8
PAPER
100
AcDbBlockReference
  2
RECT
 10
7.993621091949731
 20
2.567081975206949
 30
0.0
 41
0.09375
 42
0.09375
 43
0.09375
  0
INSERT
  5
515
330
17
100
AcDbEntity
  8
PAPER
100
AcDbBlockReference
  2
RECT
 10
7.993621091949731
 20
2.332886500323809
 30
0.0
 41
0.09375
 42
0.09375
 43
0.09375
  0
TEXT
  5
516
330
17
100
AcDbEntity
  8
PAPER
100
AcDbText
 10
8.287152464683092
 20
5.47477561154764
 30
0.0
 40
0.07
  1
15" R.
  7
arial1
100
AcDbText
  0
INSERT
  5
517
330
17
100
AcDbEntity
  8
PAPER
100
AcDbBlockReference
  2
RECT
 10
7.062976751851424
 20
5.722104367343901
 30
0.0
 41
0.09375
 42
0.09375
 43
0.09375
  0
INSERT
  5
518
330
17
100
AcDbEntity
  8
PAPER
100
AcDbBlockReference
  2
RECT
 10
7.062976751851424
 20
5.956299842227042
 30
0.0
 41
0.09375
 42
0.09375
 43
0.09375
  0
TEXT
  5
519
330
17
100
AcDbEntity
  8
PAPER
100
AcDbText
 10
7.222642929226292
 20
5.681901381928724
 30
0.0
 40
0.07
  1
3" TRACK
  7
arial1
100
AcDbText
  0
TEXT
  5
51A
330
17
100
AcDbEntity
  8
PAPER
100
AcDbText
 10
7.222642929226292
 20
5.780125154948343
 30
0.0
 40
0.07
  1
12 GA.
  7
arial1
100
AcDbText
  0
TEXT
  5
51B
330
17
100
AcDbEntity
  8
PAPER
100
AcDbText
 10
7.222642929226292
 20
5.915234715262056
 30
0.0
 40
0.07
  1
2" TRACK
  7
arial1
100
AcDbText
  0
TEXT
  5
51C
330
17
100
AcDbEntity
  8
PAPER
100
AcDbText
 10
7.222642929226292
 20
6.013458488281675
 30
0.0
 40
0.07
  1
14 GA. MIN. 
  7
arial1
100
AcDbText
  0
LINE
  5
51D
330
17
100
AcDbEntity
  8
PAPER
100
AcDbLine
 10
9.022536451249141
 20
2.80365293302849
 30
0.0
 11
8.952536451249141
 21
2.80365293302849
 31
0.0
  0
LINE
  5
51E
330
17
100
AcDbEntity
  8
PAPER
100
AcDbLine
 10
9.49915363050005
 20
3.058183240334177
 30
0.0
 11
9.022536451249141
 21
2.80365293302849
 31
0.0
  0
SOLID
  5
51F
330
17
100
AcDbEntity
  8
PAPER
100
AcDbTrace
 10
9.493657812532287
 20
3.068474357667895
 30
0.0
 11
9.504649448467809
 21
3.047892123000458
 31
0.0
 12
9.560900334502356
 22
3.091158148140738
 32
0.0
 13
9.560900334502356
 23
3.091158148140738
 33
0.0
  0
LINE
  5
520
330
17
100
AcDbEntity
  8
PAPER
100
AcDbLine
 10
8.29486336065846
 20
6.19498925575047
 30
0.0
 11
8.18248067801095
 21
6.19498925575047
 31
0.0
  0
LINE
  5
521
330
17
100
AcDbEntity
  8
PAPER
100
AcDbLine
 10
8.498939400689753
 20
6.637691899225282
 30
0.0
 11
8.29486336065846
 21
6.194989255750469
 31
0.0
  0
SOLID
  5
522
330
17
100
AcDbEntity
  8
PAPER
100
AcDbTrace
 10
8.488337817747783
 20
6.64256196598413
 30
0.0
 11
8.509540983631723
 21
6.632821832466434
 31
0.0
 12
8.528159801242843
 22
6.701301396877102
 32
0.0
 13
8.528159801242843
 23
6.701301396877102
 33
0.0
  0
LINE
  5
523
330
17
100
AcDbEntity
  8
PAPER
100
AcDbLine
 10
8.892929472251015
 20
5.642553587535857
 30
0.0
 11
8.718119058963292
 21
5.642553587535857
 31
0.0
  0
LINE
  5
524
330
17
100
AcDbEntity
  8
PAPER
100
AcDbLine
 10
9.150385060916637
 20
6.143565790354956
 30
0.0
 11
8.892929472251015
 21
5.642553587535857
 31
0.0
  0
SOLID
  5
525
330
17
100
AcDbEntity
  8
PAPER
100
AcDbTrace
 10
9.140008286416492
 20
6.148898112746213
 30
0.0
 11
9.160761835416778
 21
6.138233467963701
 31
0.0
 12
9.182378995264173
 22
6.205826437355815
 32
0.0
 13
9.182378995264173
 23
6.205826437355815
 33
0.0
  0
TEXT
  5
526
330
17
100
AcDbEntity
  8
PAPER
100
AcDbText
 10
4.659714923700573
 20
7.222113742009947
 30
0.0
 40
0.07
  1
  LENGTH OVER 13'0")
  7
arial1
100
AcDbText
  0
TEXT
  5
527
330
17
100
AcDbEntity
  8
PAPER
100
AcDbText
 10
4.659714923700573
 20
7.312188924657307
 30
0.0
 40
0.07
  1
  YES - (HORIZONTAL TRACK
  7
arial1
100
AcDbText
  0
INSERT
  5
528
330
17
100
AcDbEntity
  8
PAPER
100
AcDbBlockReference
  2
RECT
 10
4.578023116086665
 20
7.292292533471693
 30
0.0
 41
0.09375
 42
0.09375
 43
0.09375
  0
TEXT
  5
529
330
17
100
AcDbEntity
  8
PAPER
100
AcDbText
 10
4.727071567511837
 20
7.546384399540448
 30
0.0
 40
0.07
  1
NO - (HORIZONTAL TRACK
  7
arial1
100
AcDbText
  0
INSERT
  5
52A
330
17
100
AcDbEntity
  8
PAPER
100
AcDbBlockReference
  2
RECT
 10
4.578023116086665
 20
7.526488008354833
 30
0.0
 41
0.09375
 42
0.09375
 43
0.09375
  0
TEXT
  5
52B
330
17
100
AcDbEntity
  8
PAPER
100
AcDbText
 10
4.727071567511837
 20
7.456309216893087
 30
0.0
 40
0.07
  1
LENGTH UP THRU 13'0")
  7
arial1
100
AcDbText
  0
TEXT
  5
52C
330
17
100
AcDbEntity
  8
PAPER
100
AcDbText
 10
8.285098165425427
 20
5.615090725575333
 30
0.0
 40
0.07
  1
%%uRADIUS:
  7
ARIAL2
100
AcDbText
  0
TEXT
  5
52D
330
17
100
AcDbEntity
  8
PAPER
100
AcDbText
 10
7.044737102765748
 20
6.162731016253758
 30
0.0
 40
0.07
  1
%%uHORIZONTAL TRACK:
  7
ARIAL2
100
AcDbText
  0
TEXT
  5
52E
330
17
100
AcDbEntity
  8
PAPER
100
AcDbText
 10
7.975381442864056
 20
2.773513149233665
 30
0.0
 40
0.07
  1
%%uVERTICAL TRACK:
  7
ARIAL2
100
AcDbText
  0
TEXT
  5
52F
330
17
100
AcDbEntity
  8
PAPER
100
AcDbText
 10
4.576202848583006
 20
7.753514177626053
 30
0.0
 40
0.07
  1
%%uTRACK SUPPORT: (BY INSTALLER)
  7
ARIAL2
100
AcDbText
  0
TEXT
  5
530
330
17
100
AcDbEntity
  8
PAPER
100
AcDbText
 10
4.576202848583006
 20
7.880685267634979
 30
0.0
 40
0.07
  1
INTERMEDIATE HORIZONTAL
  7
ARIAL2
100
AcDbText
  0
LINE
  5
531
330
17
100
AcDbEntity
  8
PAPER
100
AcDbLine
 10
9.58100267393755
 20
5.052643533955846
 30
0.0
 11
9.49338724031746
 21
5.792204429827593
 31
0.0
  0
LINE
  5
532
330
17
100
AcDbEntity
  8
PAPER
100
AcDbLine
 10
9.552900897949395
 20
5.050837817297688
 30
0.0
 11
9.46507154192092
 21
5.792204429827593
 31
0.0
  0
TEXT
  5
533
330
17
100
AcDbEntity
  8
PAPER
100
AcDbText
 10
5.682200330717433
 20
5.998079524380638
 30
0.0
 40
0.07
  1
SPRING BUMPER:
  7
arial1
100
AcDbText
  0
LWPOLYLINE
  5
557
330
17
100
AcDbEntity
  8
PAPER
100
AcDbPolyline
 90
        4
 70
     1
 43
0.0
 10
0.1822
 20
0.7097545816086356
 10
10.8178
 20
0.7097545816086356
 10
10.8178
 20
8.3178
 10
0.1822
 20
8.3178
  0
LWPOLYLINE
  5
55D
330
17
100
AcDbEntity
  8
PAPER
100
AcDbPolyline
 90
        4
 70
     1
 43
0.0
 10
0.1678
 20
0.6953545816086355
 10
10.8322
 20
0.6953545816086355
 10
10.8322
 20
8.3322
 10
0.1678
 20
8.332199999999998
  0
LWPOLYLINE
  5
563
330
17
100
AcDbEntity
  8
PAPER
100
AcDbPolyline
 90
        4
 70
     1
 43
0.0
 10
0.175
 20
0.7025545816086356
 10
10.825
 20
0.7025545816086356
 10
10.825
 20
8.325000000000001
 10
0.175
 20
8.325000000000001
  0
LINE
  5
56B
330
17
100
AcDbEntity
  8
PAPER
100
AcDbLine
 10
0.1822000000000003
 20
1.445354581608635
 30
0.0
 11
10.82409243843734
 21
1.445354581608635
 31
0.0
  0
LINE
  5
56C
330
17
100
AcDbEntity
  8
PAPER
100
AcDbLine
 10
0.1822000000000003
 20
1.459754581608635
 30
0.0
 11
10.82409243843734
 21
1.459754581608635
 31
0.0
  0
LINE
  5
56D
330
17
100
AcDbEntity
  8
PAPER
100
AcDbLine
 10
0.1822000000000003
 20
1.452554581608635
 30
0.0
 11
10.82409243843734
 21
1.452554581608635
 31
0.0
  0
LINE
  5
56E
330
17
100
AcDbEntity
  8
DEFPOINTS
  6
CENTER
100
AcDbLine
 10
10.5
 20
8.5
 30
0.0
 11
11.5
 21
8.5
 31
0.0
  0
LINE
  5
56F
330
17
100
AcDbEntity
  8
DEFPOINTS
  6
CENTER
100
AcDbLine
 10
11.0
 20
8.0
 30
0.0
 11
11.0
 21
9.0
 31
0.0
  0
LINE
  5
570
330
17
100
AcDbEntity
  8
DEFPOINTS
  6
CENTER
100
AcDbLine
 10
-0.5
 20
8.5
 30
0.0
 11
0.5
 21
8.5
 31
0.0
  0
LINE
  5
571
330
17
100
AcDbEntity
  8
DEFPOINTS
  6
CENTER
100
AcDbLine
 10
0.0
 20
8.0
 30
0.0
 11
0.0
 21
9.0
 31
0.0
  0
LINE
  5
572
330
17
100
AcDbEntity
  8
DEFPOINTS
  6
CENTER
100
AcDbLine
 10
10.5
 20
0.0
 30
0.0
 11
11.5
 21
0.0
 31
0.0
  0
LINE
  5
573
330
17
100
AcDbEntity
  8
DEFPOINTS
  6
CENTER
100
AcDbLine
 10
11.0
 20
-0.5
 30
0.0
 11
11.0
 21
0.5
 31
0.0
  0
LINE
  5
574
330
17
100
AcDbEntity
  8
DEFPOINTS
  6
CENTER
100
AcDbLine
 10
0.0
 20
-0.5
 30
0.0
 11
0.0
 21
0.5
 31
0.0
  0
LINE
  5
575
330
17
100
AcDbEntity
  8
DEFPOINTS
  6
CENTER
100
AcDbLine
 10
-0.5
 20
0.0
 30
0.0
 11
0.5
 21
0.0
 31
0.0
  0
SOLID
  5
57B
330
17
100
AcDbEntity
  8
PAPER
100
AcDbTrace
 10
4.384659304099435
 20
2.787784245711156
 30
0.0
 11
4.407143312103638
 21
2.794022340653634
 31
0.0
 12
4.377187023274101
 22
2.858355317195004
 32
0.0
 13
4.377187023274101
 23
2.858355317195004
 33
0.0
  0
LINE
  5
57C
330
17
100
AcDbEntity
  8
PAPER
100
AcDbLine
 10
4.395901308101537
 20
2.790903293182394
 30
0.0
 11
4.620272474988801
 21
1.982200771222813
 31
0.0
  0
LINE
  5
57D
330
17
100
AcDbEntity
  8
PAPER
100
AcDbLine
 10
4.620272474988801
 20
1.982200771222813
 30
0.0
 11
4.690272474988801
 21
1.982200771222813
 31
0.0
  0
TEXT
  5
57E
330
17
100
AcDbEntity
  8
PAPER
100
AcDbText
 10
4.760272474988801
 20
1.947200771222813
 30
0.0
 40
0.07
  1
END
  7
arial1
100
AcDbText
  0
TEXT
  5
57F
330
17
100
AcDbEntity
  8
PAPER
100
AcDbText
 10
4.760272474988801
 20
1.830534104556147
 30
0.0
 40
0.07
  1
BEARING
  7
arial1
100
AcDbText
  0
TEXT
  5
580
330
17
100
AcDbEntity
  8
PAPER
100
AcDbText
 10
4.760272474988801
 20
1.713867437889481
 30
0.0
 40
0.07
  1
PLATE:
  7
arial1
100
AcDbText
  0
LINE
  5
583
330
17
100
AcDbEntity
  8
PAPER
100
AcDbLine
 10
10.10363625535128
 20
5.32056958213246
 30
0.0
 11
10.23711081683378
 21
5.32056958213246
 31
0.0
  0
LINE
  5
584
330
17
100
AcDbEntity
  8
PAPER
100
AcDbLine
 10
10.31069294688183
 20
5.32056958213246
 30
0.0
 11
10.52630570004587
 21
5.32056958213246
 31
0.0
  0
TEXT
  5
585
330
17
100
AcDbEntity
  8
PAPER
100
AcDbText
 10
0.3588369086904164
 20
6.018026645845926
 30
0.0
 40
0.07
  1
%%uHEADROOM REQUIREMENTS:
  7
ARIAL2
100
AcDbText
  0
TEXT
  5
586
330
17
100
AcDbEntity
  8
PAPER
100
AcDbText
 10
0.3588369086904164
 20
5.852328515282931
 30
0.0
 40
0.07
  1
MINIMUM HEADROOM = HI-LIFT + 12"
  7
arial1
100
AcDbText
  0
TEXT
  5
587
330
17
100
AcDbEntity
  8
PAPER
100
AcDbText
 10
0.3588369086904164
 20
5.735661848616265
 30
0.0
 40
0.07
  1
12" ADDITIONAL FOR DOUBLE SHAFTS
  7
arial1
100
AcDbText
  0
TEXT
  5
588
330
17
100
AcDbEntity
  8
PAPER
100
AcDbText
 10
0.3588369086904164
 20
5.401939807397927
 30
0.0
 40
0.07
  1
%%uMAX. AVAILABLE HI-LIFT:
  7
ARIAL2
100
AcDbText
  0
TEXT
  5
589
330
17
100
AcDbEntity
  8
PAPER
100
AcDbText
 10
0.3588369086904164
 20
5.126465310321816
 30
0.0
 40
0.07
  1
MAXIMUM HI-LIFT =
  7
arial1
100
AcDbText
  0
TEXT
  5
58A
330
17
100
AcDbEntity
  8
PAPER
100
AcDbText
 10
0.3588369086904164
 20
5.00979864365515
 30
0.0
 40
0.07
  1
FLOOR TO CEILING - (DOOR HEIGHT + 12")
  7
arial1
100
AcDbText
  0
TEXT
  5
58B
330
17
100
AcDbEntity
  8
PAPER
100
AcDbText
 10
0.3588369086904164
 20
4.827922982124841
 30
0.0
 40
0.07
  1
HI-LIFT MAY NOT EXCEED THE DOOR HEIGHT - 24"
  7
arial1
100
AcDbText
  0
TEXT
  5
58C
330
17
100
AcDbEntity
  8
PAPER
100
AcDbText
 10
0.3588369086904164
 20
4.711256315458174
 30
0.0
 40
0.07
  1
OR EXCEED 162" (13'6")
  7
arial1
100
AcDbText
  0
TEXT
  5
58D
330
17
100
AcDbEntity
  8
PAPER
100
AcDbText
 10
0.8388124347785408
 20
1.934339965517169
 30
0.0
 40
0.07
  1
FOR USE WITH STEEL JAMBS
  7
arial1
100
AcDbText
  0
TEXT
  5
58E
330
17
100
AcDbEntity
  8
PAPER
100
AcDbText
 10
0.8388124347785408
 20
1.653800644999939
 30
0.0
 40
0.07
  1
FOR USE WITH WOOD JAMBS
  7
arial1
100
AcDbText
  0
TEXT
  5
590
330
17
100
AcDbEntity
  8
PAPER
100
AcDbText
 10
5.392279413984923
 20
5.684252037640868
 30
0.0
 40
0.07
  1
13'6" MAX.
 50
90.0
  7
arial1
 72
     1
 11
5.392279413984923
 21
5.925646989891892
 31
0.0
100
AcDbText
  0
TEXT
  5
591
330
17
100
AcDbEntity
  8
PAPER
100
AcDbText
 10
0.9346680213634193
 20
7.143886343926936
 30
0.0
 40
0.07
  1
LIMITATIONS:
  7
arial1
 72
     1
 11
1.255230777161509
 21
7.143886343926936
 31
0.0
100
AcDbText
  0
TEXT
  5
593
330
17
100
AcDbEntity
  8
PAPER
100
AcDbText
 10
1.598980777161509
 20
6.403111887042883
 30
0.0
 40
0.07
  1
31"
  7
arial1
100
AcDbText
  0
TEXT
  5
594
330
17
100
AcDbEntity
  8
PAPER
100
AcDbText
 10
1.598980777161509
 20
6.590611887042883
 30
0.0
 40
0.07
  1
43"
  7
arial1
100
AcDbText
  0
TEXT
  5
595
330
17
100
AcDbEntity
  8
PAPER
100
AcDbText
 10
1.598980777161509
 20
6.778111887042883
 30
0.0
 40
0.07
  1
54"
  7
arial1
100
AcDbText
  0
TEXT
  5
596
330
17
100
AcDbEntity
  8
PAPER
100
AcDbText
 10
0.4114807771615094
 20
6.403111887042883
 30
0.0
 40
0.07
  1
@ 16'0"
  7
arial1
100
AcDbText
  0
TEXT
  5
597
330
17
100
AcDbEntity
  8
PAPER
100
AcDbText
 10
0.4114807771615094
 20
6.590611887042883
 30
0.0
 40
0.07
  1
@ 15'0"
  7
arial1
100
AcDbText
  0
TEXT
  5
598
330
17
100
AcDbEntity
  8
PAPER
100
AcDbText
 10
0.4114807771615094
 20
6.778111887042883
 30
0.0
 40
0.07
  1
THRU 14'0"
  7
arial1
100
AcDbText
  0
LWPOLYLINE
  5
599
330
17
100
AcDbEntity
  8
PAPER
100
AcDbPolyline
 90
        2
 70
     0
 43
0.015625
 10
1.255230777161509
 20
7.062149097150437
 10
1.255230777161509
 20
6.343399097150437
  0
TEXT
  5
59D
330
17
100
AcDbEntity
  8
PAPER
100
AcDbText
 10
1.348980777161509
 20
6.937149097150437
 30
0.0
 40
0.07
  1
MAX. HI-LIFT
  7
arial1
100
AcDbText
  0
TEXT
  5
59E
330
17
100
AcDbEntity
  8
PAPER
100
AcDbText
 10
0.4427307771615094
 20
6.937149097150437
 30
0.0
 40
0.07
  1
DOOR HEIGHT
  7
arial1
100
AcDbText
  0
LWPOLYLINE
  5
59F
330
17
100
AcDbEntity
  8
PAPER
100
AcDbPolyline
 90
        2
 70
     0
 43
0.015625
 10
0.3802307771615094
 20
6.530899097150437
 10
2.130230777161509
 20
6.530899097150437
  0
LWPOLYLINE
  5
5A3
330
17
100
AcDbEntity
  8
PAPER
100
AcDbPolyline
 90
        2
 70
     0
 43
0.015625
 10
0.3802307771615094
 20
6.718399097150437
 10
2.130230777161509
 20
6.718399097150437
  0
LWPOLYLINE
  5
5A7
330
17
100
AcDbEntity
  8
PAPER
100
AcDbPolyline
 90
        2
 70
     0
 43
0.015625
 10
0.3802307771615094
 20
6.905899097150437
 10
2.130230777161509
 20
6.905899097150437
  0
LWPOLYLINE
  5
5AB
330
17
100
AcDbEntity
  8
PAPER
100
AcDbPolyline
 90
        4
 70
     1
 43
0.015625
 10
0.3802307771615094
 20
7.062149097150437
 10
2.130230777161509
 20
7.062149097150437
 10
2.130230777161509
 20
6.343399097150437
 10
0.3802307771615094
 20
6.343399097150437
  0
TEXT
  5
5B1
330
17
100
AcDbEntity
  8
PAPER
100
AcDbText
 10
0.5896339149514139
 20
7.240845145734402
 30
0.0
 40
0.07
  1
* STRAIGHT INCLINE TRACK
  7
arial1
 72
     1
 11
1.255230777161509
 21
7.240845145734402
 31
0.0
100
AcDbText
  0
TEXT
  5
5B2
330
17
100
AcDbEntity
  8
PAPER
100
AcDbText
 10
0.496140539975119
 20
7.495592757776967
 30
0.0
 40
0.07
  1
STRAIGHT INCLINE (OPTIONAL) *
  7
arial1
100
AcDbText
  0
TEXT
  5
5B3
330
17
100
AcDbEntity
  8
PAPER
100
AcDbText
 10
0.3588369086904164
 20
5.284268837184421
 30
0.0
 40
0.07
  1
(BREAKAWAY TRACK)
  7
arial1
100
AcDbText
  0
INSERT
  5
5B4
330
17
100
AcDbEntity
  8
PAPER
100
AcDbBlockReference
  2
RECT
 10
5.703964013994619
 20
2.191018649392722
 30
0.0
 41
0.09375
 42
0.09375
 43
0.09375
  0
TEXT
  5
5B5
330
17
100
AcDbEntity
  8
PAPER
100
AcDbText
 10
5.853940045743998
 20
2.20673854176718
 30
0.0
 40
0.07
  1
NONE
  7
arial1
100
AcDbText
  0
TEXT
  5
5B6
330
17
100
AcDbEntity
  8
PAPER
100
AcDbText
 10
5.624952904665039
 20
2.890035840009862
 30
0.0
 40
0.07
  1
AVAILABLE FOR DOORS WITH
  7
arial1
100
AcDbText
  0
TEXT
  5
5B7
330
17
100
AcDbEntity
  8
PAPER
100
AcDbText
 10
5.624952904665039
 20
2.79300113742935
 30
0.0
 40
0.07
  1
MORE THAN 24" HI-LIFT
  7
arial1
100
AcDbText
  0
LWPOLYLINE
  5
5B8
330
17
100
AcDbEntity
  8
PAPER
100
AcDbPolyline
 90
        3
 70
     0
 43
0.0
 10
9.734322498305193
 20
6.705972078269001
 10
9.614807857971708
 20
6.705972078269001
 10
9.614807857971708
 20
6.517783624079339
  0
LWPOLYLINE
  5
5BD
330
17
100
AcDbEntity
  8
PAPER
100
AcDbPolyline
 90
        2
 70
     0
 43
0.0
 10
9.734322498305193
 20
6.905384109273041
 10
9.657358378379743
 20
6.90538410927304
  0
LWPOLYLINE
  5
5C1
330
17
100
AcDbEntity
  8
PAPER
100
AcDbPolyline
 90
        2
 70
     0
 43
0.0
 10
9.434456127714474
 20
6.725429762327497
 10
9.434456127714474
 20
6.549584500141145
  0
LINE
  5
5C5
330
17
100
AcDbEntity
  8
PAPER
  6
ByBlock
100
AcDbLine
 10
8.881460208059237
 20
6.57490910682099
 30
0.0
 11
10.33456510564619
 21
6.57490910682099
 31
0.0
  0
LINE
  5
5C6
330
17
100
AcDbEntity
  8
PAPER
  6
ByBlock
100
AcDbLine
 10
10.1326432118878
 20
1.620721019141177
 30
0.0
 11
10.33456510564619
 21
1.620721019141177
 31
0.0
  0
LINE
  5
5C7
330
17
100
AcDbEntity
  8
PAPER
  6
ByBlock
100
AcDbLine
 10
10.27456510564619
 20
6.504909106820989
 30
0.0
 11
10.27456510564619
 21
4.896148396314417
 31
0.0
  0
LINE
  5
5C8
330
17
100
AcDbEntity
  8
PAPER
  6
ByBlock
100
AcDbLine
 10
10.27456510564619
 20
1.690721019141177
 30
0.0
 11
10.27456510564619
 21
3.299481729647749
 31
0.0
  0
SOLID
  5
5C9
330
17
100
AcDbEntity
  8
PAPER
  6
ByBlock
100
AcDbTrace
 10
10.28623177231285
 20
6.504909106820989
 30
0.0
 11
10.26289843897952
 21
6.504909106820989
 31
0.0
 12
10.27456510564619
 22
6.57490910682099
 32
0.0
 13
10.27456510564619
 23
6.57490910682099
 33
0.0
  0
SOLID
  5
5CA
330
17
100
AcDbEntity
  8
PAPER
  6
ByBlock
100
AcDbTrace
 10
10.28623177231285
 20
1.690721019141177
 30
0.0
 11
10.26289843897952
 21
1.690721019141177
 31
0.0
 12
10.27456510564619
 22
1.620721019141177
 32
0.0
 13
10.27456510564619
 23
1.620721019141177
 33
0.0
  0
TEXT
  5
5CB
330
17
100
AcDbEntity
  8
PAPER
  6
ByBlock
100
AcDbText
 10
10.30956510564619
 20
3.36948172964775
 30
0.0
 40
0.07
  1
MIN. OVERHEAD CLEARANCE
 50
90.0
  7
arial1
100
AcDbText
  0
POINT
  5
5CC
330
17
100
AcDbEntity
  8
PAPER
  6
ByBlock
100
AcDbPoint
 10
8.791460208059238
 20
6.57490910682099
 30
0.0
  0
POINT
  5
5CD
330
17
100
AcDbEntity
  8
PAPER
  6
ByBlock
100
AcDbPoint
 10
10.0426432118878
 20
1.620721019141177
 30
0.0
  0
POINT
  5
5CE
330
17
100
AcDbEntity
  8
PAPER
  6
ByBlock
100
AcDbPoint
 10
10.27456510564619
 20
1.620721019141177
 30
0.0
  0
INSERT
  5
5D0
330
17
100
AcDbEntity
  8
PAPER
100
AcDbBlockReference
  2
12393
 10
0.0967084072809206
 20
0.6953545816086355
 30
0.0
  0
TEXT
  5
628
330
17
100
AcDbEntity
  8
PAPER
100
AcDbText
 10
5.52980647010974
 20
1.294196491047623
 30
0.0
 40
0.06
  1
TRACK SIZE:
  7
arial1
100
AcDbText
  0
LINE
  5
629
330
17
100
AcDbEntity
  8
PAPER
100
AcDbLine
 10
4.208680654796743
 20
1.205891574261351
 30
0.0
 11
6.490612032246341
 21
1.205891574261351
 31
0.0
  0
LINE
  5
62A
330
17
100
AcDbEntity
  8
PAPER
100
AcDbLine
 10
4.208680654796743
 20
0.9574665948454448
 30
0.0
 11
6.490612032246341
 21
0.9574665948454448
 31
0.0
  0
LINE
  5
62B
330
17
100
AcDbEntity
  8
PAPER
100
AcDbLine
 10
5.681826227580661
 20
0.7379282409430156
 30
0.0
 11
5.889799720208979
 21
0.7379282409430156
 31
0.0
  0
TEXT
  5
62C
330
17
100
AcDbEntity
  8
PAPER
100
AcDbText
 10
4.238156660742261
 20
0.7559681178433885
 30
0.0
 40
0.06
  1
DOOR SIZE:             '           " W  x                '          " H
  7
arial1
100
AcDbText
  0
TEXT
  5
62D
330
17
100
AcDbEntity
  8
PAPER
100
AcDbText
 10
4.238156660742261
 20
1.028184681627082
 30
0.0
 40
0.06
  1
OPENING SIZE:              '            " W  x               '           " H
  7
arial1
100
AcDbText
  0
LINE
  5
62E
330
17
100
AcDbEntity
  8
PAPER
100
AcDbLine
 10
1.837598686172373
 20
0.8604134383928377
 30
0.0
 11
4.208680654796743
 21
0.8604134383928377
 31
0.0
  0
LINE
  5
62F
330
17
100
AcDbEntity
  8
PAPER
100
AcDbLine
 10
1.837598686172373
 20
1.058117749579336
 30
0.0
 11
4.208680654796743
 21
1.058117749579336
 31
0.0
  0
LINE
  5
630
330
17
100
AcDbEntity
  8
PAPER
100
AcDbLine
 10
1.837598686172373
 20
1.258817580632297
 30
0.0
 11
4.208680654796743
 21
1.258817580632297
 31
0.0
  0
LINE
  5
631
330
17
100
AcDbEntity
  8
PAPER
100
AcDbLine
 10
1.837979037511768
 20
1.436448394725808
 30
0.0
 11
1.837979037511768
 21
0.6889893289309269
 31
0.0
  0
LINE
  5
632
330
17
100
AcDbEntity
  8
PAPER
100
AcDbLine
 10
1.830779037511767
 20
1.436448394725808
 30
0.0
 11
1.830779037511767
 21
0.6889893289309269
 31
0.0
  0
TEXT
  5
633
330
17
100
AcDbEntity
  8
PAPER
100
AcDbText
 10
4.611266883848522
 20
1.344002843955207
 30
0.0
 40
0.06
  1
HIGH LIFT
  7
arial1
100
AcDbText
  0
LINE
  5
634
330
17
100
AcDbEntity
  8
PAPER
100
AcDbLine
 10
5.505788172557653
 20
1.205891574261351
 30
0.0
 11
5.505788172557653
 21
1.434095915817824
 31
0.0
  0
LINE
  5
635
330
17
100
AcDbEntity
  8
PAPER
100
AcDbLine
 10
4.208680654796743
 20
0.6888209775701039
 30
0.0
 11
4.208680654796743
 21
1.436984578369171
 31
0.0
  0
LINE
  5
636
330
17
100
AcDbEntity
  8
PAPER
100
AcDbLine
 10
1.845179037511767
 20
1.436448394725808
 30
0.0
 11
1.845179037511767
 21
0.6889893289309269
 31
0.0
  0
TEXT
  5
637
330
17
100
AcDbEntity
  8
PAPER
100
AcDbText
 10
1.870928287060573
 20
0.7442654702565643
 30
0.0
 40
0.06
  1
CONT:
  7
arial1
100
AcDbText
  0
TEXT
  5
638
330
17
100
AcDbEntity
  8
PAPER
100
AcDbText
 10
1.870928287060573
 20
0.9292878709242538
 30
0.0
 40
0.06
  1
ARCH:
  7
arial1
100
AcDbText
  0
TEXT
  5
639
330
17
100
AcDbEntity
  8
PAPER
100
AcDbText
 10
1.870928287060573
 20
1.129287870924253
 30
0.0
 40
0.06
  1
JOB:
  7
arial1
100
AcDbText
  0
LINE
  5
63A
330
17
100
AcDbEntity
  8
PAPER
100
AcDbLine
 10
5.234105514283588
 20
1.009462520769704
 30
0.0
 11
5.442079006911906
 21
1.009462520769704
 31
0.0
  0
LINE
  5
63B
330
17
100
AcDbEntity
  8
PAPER
100
AcDbLine
 10
5.072348353350452
 20
0.7379282409430156
 30
0.0
 11
5.28032184597877
 21
0.7379282409430156
 31
0.0
  0
LINE
  5
63C
330
17
100
AcDbEntity
  8
PAPER
100
AcDbLine
 10
4.806604446103158
 20
0.7379282409430156
 30
0.0
 11
5.014577938731475
 21
0.7379282409430156
 31
0.0
  0
LINE
  5
63D
330
17
100
AcDbEntity
  8
PAPER
100
AcDbLine
 10
4.968361607036293
 20
1.009462520769704
 30
0.0
 11
5.176335099664611
 21
1.009462520769704
 31
0.0
  0
TEXT
  5
63E
330
17
100
AcDbEntity
  8
PAPER
100
AcDbText
 10
1.870928287060573
 20
1.317305791458405
 30
0.0
 40
0.06
  1
CUST:
  7
arial1
100
AcDbText
  0
LINE
  5
63F
330
17
100
AcDbEntity
  8
PAPER
100
AcDbLine
 10
9.380886582826297
 20
0.8519494085872935
 30
0.0
 11
9.694134902916564
 21
0.8519494085872935
 31
0.0
  0
LINE
  5
640
330
17
100
AcDbEntity
  8
PAPER
100
AcDbLine
 10
9.180260937491798
 20
1.062500710995393
 30
0.0
 11
9.690566333712226
 21
1.062500710995393
 31
0.0
  0
LINE
  5
641
330
17
100
AcDbEntity
  8
PAPER
100
AcDbLine
 10
9.300739367721106
 20
1.280317702823786
 30
0.0
 11
9.696429867771598
 21
1.280317702823786
 31
0.0
  0
TEXT
  5
642
330
17
100
AcDbEntity
  8
PAPER
100
AcDbText
 10
8.163988515711995
 20
1.294196491047623
 30
0.0
 40
0.06
  1
OVERHEAD CLEARANCE:
  7
arial1
100
AcDbText
  0
TEXT
  5
643
330
17
100
AcDbEntity
  8
PAPER
100
AcDbText
 10
6.524297109628866
 20
1.294196491047623
 30
0.0
 40
0.06
  1
OPERATOR MODEL #:
  7
arial1
100
AcDbText
  0
LINE
  5
644
330
17
100
AcDbEntity
  8
PAPER
100
AcDbLine
 10
6.490612032246341
 20
0.6888209775701039
 30
0.0
 11
6.490612032246341
 21
1.436984578369171
 31
0.0
  0
LINE
  5
645
330
17
100
AcDbEntity
  8
PAPER
100
AcDbLine
 10
8.129277213047323
 20
0.688820977570104
 30
0.0
 11
8.129277213047323
 21
1.436984578369171
 31
0.0
  0
LINE
  5
646
330
17
100
AcDbEntity
  8
PAPER
100
AcDbLine
 10
7.504074588168658
 20
1.280317702823786
 30
0.0
 11
8.092106179415516
 21
1.280317702823786
 31
0.0
  0
LINE
  5
647
330
17
100
AcDbEntity
  8
PAPER
100
AcDbLine
 10
7.570836226335067
 20
1.062629068130666
 30
0.0
 11
8.092106179415516
 21
1.062629068130666
 31
0.0
  0
LINE
  5
648
330
17
100
AcDbEntity
  8
PAPER
100
AcDbLine
 10
7.110347728822606
 20
0.8523767027349769
 30
0.0
 11
8.090904821666255
 21
0.8523767027349769
 31
0.0
  0
TEXT
  5
649
330
17
100
AcDbEntity
  8
PAPER
100
AcDbText
 10
6.524297109628866
 20
1.076507856354502
 30
0.0
 40
0.06
  1
OPERATOR BACKROOM:
  7
arial1
100
AcDbText
  0
TEXT
  5
64A
330
17
100
AcDbEntity
  8
PAPER
100
AcDbText
 10
6.523095751879605
 20
0.8711633713566349
 30
0.0
 40
0.06
  1
BACK ROOM:
  7
arial1
100
AcDbText
  0
LINE
  5
64B
330
17
100
AcDbEntity
  8
PAPER
100
AcDbLine
 10
6.103550254299195
 20
1.009462520769704
 30
0.0
 11
6.311523746927512
 21
1.009462520769704
 31
0.0
  0
LINE
  5
64C
330
17
100
AcDbEntity
  8
PAPER
100
AcDbLine
 10
5.941793093366059
 20
0.7379282409430156
 30
0.0
 11
6.149766585994377
 21
0.7379282409430156
 31
0.0
  0
LINE
  5
64D
330
17
100
AcDbEntity
  8
PAPER
100
AcDbLine
 10
5.843583388513797
 20
1.009462520769704
 30
0.0
 11
6.051556881142115
 21
1.009462520769704
 31
0.0
  0
TEXT
  5
64E
330
17
100
AcDbEntity
  8
PAPER
100
AcDbText
 10
8.161069016671044
 20
1.073579404526793
 30
0.0
 40
0.06
  1
AVAILABLE HEADROOM:
  7
arial1
100
AcDbText
  0
TEXT
  5
64F
330
17
100
AcDbEntity
  8
PAPER
100
AcDbText
 10
8.161069016671044
 20
0.8630281021186934
 30
0.0
 40
0.06
  1
HEADROOM REQUIREMENT:
  7
arial1
100
AcDbText
  0
LINE
  5
650
330
17
100
AcDbEntity
  8
PAPER
100
AcDbLine
 10
9.735072100203822
 20
0.6888209775701039
 30
0.0
 11
9.735072100203822
 21
1.436984578369171
 31
0.0
  0
TEXT
  5
651
330
17
100
AcDbEntity
  8
PAPER
100
AcDbText
 10
10.21502739017514
 20
0.5686854902172859
 30
0.0
 40
0.056
  1
REV. MAY, 2011
  7
arial1
 72
     2
 11
10.8063889181424
 21
0.5686854902172859
 31
0.0
100
AcDbText
  0
LINE
  5
652
330
17
100
AcDbEntity
  8
PAPER
100
AcDbLine
 10
10.02578684236564
 20
1.092576421669105
 30
0.0
 11
10.76816671706441
 21
1.092576421669105
 31
0.0
  0
LINE
  5
653
330
17
100
AcDbEntity
  8
PAPER
100
AcDbLine
 10
10.06102171562477
 20
0.9307065705044731
 30
0.0
 11
10.76588652302675
 21
0.9307065705044731
 31
0.0
  0
LINE
  5
654
330
17
100
AcDbEntity
  8
PAPER
100
AcDbLine
 10
10.00515997877182
 20
0.7323590064013324
 30
0.0
 11
10.23089918849977
 21
0.7323590064013324
 31
0.0
  0
TEXT
  5
655
330
17
100
AcDbEntity
  8
PAPER
100
AcDbText
 10
9.761862189139126
 20
0.7728985691572678
 30
0.0
 40
0.06
  1
PAGE            of
  7
arial1
100
AcDbText
  0
TEXT
  5
656
330
17
100
AcDbEntity
  8
PAPER
100
AcDbText
 10
9.761862189139126
 20
0.9566759945290829
 30
0.0
 40
0.06
  1
BID #:
  7
arial1
100
AcDbText
  0
TEXT
  5
657
330
17
100
AcDbEntity
  8
PAPER
100
AcDbText
 10
9.761862189139126
 20
1.1244944204903
 30
0.0
 40
0.06
  1
DATE:
  7
arial1
100
AcDbText
  0
LINE
  5
658
330
17
100
AcDbEntity
  8
PAPER
100
AcDbLine
 10
10.39963354728631
 20
0.7323590064013324
 30
0.0
 11
10.62537275701426
 21
0.7323590064013324
 31
0.0
  0
TEXT
  5
659
330
17
100
AcDbEntity
  8
PAPER
100
AcDbText
 10
9.769028690630268
 20
1.284827480808006
 30
0.0
 40
0.1008811405475445
  1
SHEET `T-6'
  7
ROMANT
 72
     2
 11
10.77784009610571
 21
1.284827480808006
 31
0.0
100
AcDbText
  0
TEXT
  5
65A
330
17
100
AcDbEntity
  8
PAPER
100
AcDbText
 10
0.4110315890142662
 20
4.207459755044428
 30
0.0
 40
0.07
  1
TO COUNTERBALANCE DOOR LOAD.  AN EXACT SPRING LAYOUT
  7
arial1
100
AcDbText
  0
TEXT
  5
65B
330
17
100
AcDbEntity
  8
PAPER
100
AcDbText
 10
0.4110315890142662
 20
3.982562074280444
 30
0.0
 40
0.07
  1
MAY REQUIRE 6" SPRINGS OR DOUBLE SHAFTS.
  7
arial1
100
AcDbText
  0
TEXT
  5
65C
330
17
100
AcDbEntity
  8
PAPER
100
AcDbText
 10
0.4110315890142662
 20
4.095010914662436
 30
0.0
 40
0.07
  1
CAN BE FURNISHED UPON APPROVAL OF BID.  SOME DOORS
  7
arial1
100
AcDbText
  0
TEXT
  5
65D
330
17
100
AcDbEntity
  8
PAPER
100
AcDbText
 10
0.4110315890142662
 20
4.31990859542642
 30
0.0
 40
0.07
  1
SPRING SIZE AND CONFIGURATION INDIVIDUALLY CALCULATED
  7
arial1
100
AcDbText
  0
TEXT
  5
65E
330
17
100
AcDbEntity
  8
PAPER
100
AcDbText
 10
0.3270775424072774
 20
4.45441707266232
 30
0.0
 40
0.07
  1
%%uNOTE:
  7
arial1
100
AcDbText
  0
TEXT
  5
65F
330
17
100
AcDbEntity
  8
PAPER
100
AcDbText
 10
4.427871172067335
 20
1.247944505809136
 30
0.0
 40
0.06
  1
FOLLOW-THE-ROOF
  7
arial1
100
AcDbText
  0
LINE
  5
660
330
17
100
AcDbEntity
  8
PAPER
100
AcDbLine
 10
6.969584611243115
 20
6.804386472250606
 30
0.0
 11
6.969584611243115
 21
4.769494716106085
 31
0.0
  0
LINE
  5
661
330
17
100
AcDbEntity
  8
PAPER
100
AcDbLine
 10
9.734322498305196
 20
4.448924279967695
 30
0.0
 11
9.734322498305196
 21
4.889494716106084
 31
0.0
  0
LINE
  5
662
330
17
100
AcDbEntity
  8
PAPER
100
AcDbLine
 10
7.039584611243115
 20
4.829494716106085
 30
0.0
 11
7.846349430839214
 21
4.829494716106085
 31
0.0
  0
LINE
  5
663
330
17
100
AcDbEntity
  8
PAPER
100
AcDbLine
 10
9.664322498305196
 20
4.829494716106085
 30
0.0
 11
8.637481851446803
 21
4.829494716106085
 31
0.0
  0
SOLID
  5
664
330
17
100
AcDbEntity
  8
PAPER
100
AcDbTrace
 10
7.039584611243115
 20
4.817828049439418
 30
0.0
 11
7.039584611243115
 21
4.841161382772751
 31
0.0
 12
6.969584611243115
 22
4.829494716106085
 32
0.0
 13
6.969584611243115
 23
4.829494716106085
 33
0.0
  0
SOLID
  5
665
330
17
100
AcDbEntity
  8
PAPER
100
AcDbTrace
 10
9.664322498305196
 20
4.817828049439418
 30
0.0
 11
9.664322498305196
 21
4.841161382772751
 31
0.0
 12
9.734322498305196
 22
4.829494716106085
 32
0.0
 13
9.734322498305196
 23
4.829494716106085
 33
0.0
  0
TEXT
  5
666
330
17
100
AcDbEntity
  8
PAPER
100
AcDbText
 10
7.916349430839215
 20
4.794494716106084
 30
0.0
 40
0.07
  1
BACK ROOM
  7
arial1
100
AcDbText
  0
LINE
  5
668
330
17
100
AcDbEntity
  8
PAPER
100
AcDbLine
 10
9.644322498305196
 20
5.32056958213246
 30
0.0
 11
5.176345655156932
 21
5.320569582132461
 31
0.0
  0
LINE
  5
669
330
17
100
AcDbEntity
  8
PAPER
100
AcDbLine
 10
8.701460208059238
 20
6.57490910682099
 30
0.0
 11
5.176345655156932
 21
6.574909106820991
 31
0.0
  0
LINE
  5
66A
330
17
100
AcDbEntity
  8
PAPER
100
AcDbLine
 10
5.236345655156932
 20
5.390569582132461
 30
0.0
 11
5.236345655156932
 21
5.694406011143393
 31
0.0
  0
LINE
  5
66B
330
17
100
AcDbEntity
  8
PAPER
100
AcDbLine
 10
5.236345655156932
 20
6.50490910682099
 30
0.0
 11
5.236345655156932
 21
6.201072677810059
 31
0.0
  0
SOLID
  5
66C
330
17
100
AcDbEntity
  8
PAPER
100
AcDbTrace
 10
5.248012321823599
 20
5.390569582132461
 30
0.0
 11
5.224678988490265
 21
5.390569582132461
 31
0.0
 12
5.236345655156932
 22
5.320569582132461
 32
0.0
 13
5.236345655156932
 23
5.320569582132461
 33
0.0
  0
SOLID
  5
66D
330
17
100
AcDbEntity
  8
PAPER
100
AcDbTrace
 10
5.248012321823599
 20
6.50490910682099
 30
0.0
 11
5.224678988490265
 21
6.50490910682099
 31
0.0
 12
5.236345655156932
 22
6.574909106820991
 32
0.0
 13
5.236345655156932
 23
6.574909106820991
 33
0.0
  0
TEXT
  5
66E
330
17
100
AcDbEntity
  8
PAPER
100
AcDbText
 10
5.271345655156932
 20
5.764406011143393
 30
0.0
 40
0.07
  1
HI-LIFT
 50
90.0
  7
arial1
100
AcDbText
  0
LINE
  5
66F
330
17
100
AcDbEntity
  8
PAPER
100
AcDbLine
 10
9.719017367173552
 20
7.203872615535766
 30
0.0
 11
10.55099775451127
 21
7.203872615535766
 31
0.0
  0
LINE
  5
670
330
17
100
AcDbEntity
  8
PAPER
100
AcDbLine
 10
10.49099775451127
 20
5.39056958213246
 30
0.0
 11
10.49099775451127
 21
5.92388776550078
 31
0.0
  0
LINE
  5
671
330
17
100
AcDbEntity
  8
PAPER
100
AcDbLine
 10
10.49099775451127
 20
7.133872615535766
 30
0.0
 11
10.49099775451127
 21
6.600554432167446
 31
0.0
  0
SOLID
  5
672
330
17
100
AcDbEntity
  8
PAPER
100
AcDbTrace
 10
10.50266442117793
 20
5.39056958213246
 30
0.0
 11
10.4793310878446
 21
5.39056958213246
 31
0.0
 12
10.49099775451127
 22
5.32056958213246
 32
0.0
 13
10.49099775451127
 23
5.32056958213246
 33
0.0
  0
SOLID
  5
673
330
17
100
AcDbEntity
  8
PAPER
100
AcDbTrace
 10
10.50266442117793
 20
7.133872615535766
 30
0.0
 11
10.4793310878446
 21
7.133872615535766
 31
0.0
 12
10.49099775451127
 22
7.203872615535766
 32
0.0
 13
10.49099775451127
 23
7.203872615535766
 33
0.0
  0
TEXT
  5
674
330
17
100
AcDbEntity
  8
PAPER
100
AcDbText
 10
10.52599775451127
 20
5.99388776550078
 30
0.0
 40
0.07
  1
HEADROOM
 50
90.0
  7
arial1
100
AcDbText
  0
SOLID
  5
6F1
330
17
100
AcDbEntity
  8
PAPER
100
AcDbTrace
 10
4.722174577091666
 20
3.051940737778948
 30
0.0
 11
4.701161448090492
 21
3.062084349267196
 31
0.0
 12
4.681237178126337
 22
2.993973156519553
 32
0.0
 13
4.681237178126337
 23
2.993973156519553
 33
0.0
  0
LINE
  5
6F2
330
17
100
AcDbEntity
  8
PAPER
100
AcDbLine
 10
4.71166801259108
 20
3.057012543523072
 30
0.0
 11
4.899306315691787
 21
3.44571708659282
 31
0.0
  0
LINE
  5
6F3
330
17
100
AcDbEntity
  8
PAPER
100
AcDbLine
 10
4.899306315691787
 20
3.44571708659282
 30
0.0
 11
4.969306315691787
 21
3.44571708659282
 31
0.0
  0
TEXT
  5
6F4
330
17
100
AcDbEntity
  8
PAPER
100
AcDbText
 10
4.995774554663859
 20
3.413276877338214
 30
0.0
 40
0.07
  1
SHAFT CENTERLINE = DH + HI-LIFT + 7" 
  7
arial1
100
AcDbText
  0
ENDSEC
  0
SECTION
  2
OBJECTS
  0
DICTIONARY
  5
C
330
0
100
AcDbDictionary
281
     1
  3
ACAD_COLOR
350
6C3
  3
ACAD_GROUP
350
D
  3
ACAD_LAYOUT
350
5E3
  3
ACAD_MATERIAL
350
691
  3
ACAD_MLEADERSTYLE
350
6D8
  3
ACAD_MLINESTYLE
350
1A
  3
ACAD_PLOTSETTINGS
350
5E4
  3
ACAD_PLOTSTYLENAME
350
5E1
  3
ACAD_SCALELIST
350
6C6
  3
ACAD_TABLESTYLE
350
6C4
  3
ACAD_VISUALSTYLE
350
6AA
  3
ACDB_RECOMPOSE_DATA
350
751
  3
ACDBVARIABLEDICTIONARY
350
36
  0
DICTIONARY
  5
6E7
330
2
100
AcDbDictionary
280
     1
281
     1
  3
ACAD_LAYERSTATES
360
6E8
  0
DICTIONARY
  5
6F5
330
E
100
AcDbDictionary
280
     1
281
     1
  3
ADSK_XREC_LAYER_RECONCILED
360
6F6
  0
DICTIONARY
  5
6F7
330
2A
100
AcDbDictionary
280
     1
281
     1
  3
ADSK_XREC_LAYER_RECONCILED
360
6F8
  0
DICTIONARY
  5
6C3
102
{ACAD_REACTORS
330
C
102
}
330
C
100
AcDbDictionary
281
     1
  0
DICTIONARY
  5
D
102
{ACAD_REACTORS
330
C
102
}
330
C
100
AcDbDictionary
281
     1
  0
DICTIONARY
  5
5E3
102
{ACAD_REACTORS
330
C
102
}
330
C
100
AcDbDictionary
281
     1
  3
Layout1
350
5E6
  3
Model
350
5E5
  0
DICTIONARY
  5
691
102
{ACAD_REACTORS
330
C
102
}
330
C
100
AcDbDictionary
281
     1
  3
ByBlock
350
69A
  3
ByLayer
350
692
  3
Global
350
6A2
  0
DICTIONARY
  5
6D8
102
{ACAD_REACTORS
330
C
102
}
330
C
100
AcDbDictionary
281
     1
  3
Standard
350
6D9
  0
DICTIONARY
  5
1A
102
{ACAD_REACTORS
330
C
102
}
330
C
100
AcDbDictionary
281
     1
  3
STANDARD
350
1B
  0
DICTIONARY
  5
5E4
102
{ACAD_REACTORS
330
C
102
}
330
C
100
AcDbDictionary
281
     1
  0
ACDBDICTIONARYWDFLT
  5
5E1
102
{ACAD_REACTORS
330
C
102
}
330
C
100
AcDbDictionary
281
     1
  3
Normal
350
5E2
100
AcDbDictionaryWithDefault
340
5E2
  0
DICTIONARY
  5
6C6
102
{ACAD_REACTORS
330
C
102
}
330
C
100
AcDbDictionary
281
     1
  3
A0
350
6C7
  3
A1
350
6C8
  3
A2
350
6C9
  3
A3
350
6CA
  3
A4
350
6CB
  3
A5
350
6CC
  3
A6
350
6CD
  3
A7
350
6CE
  3
A8
350
6CF
  3
A9
350
6D0
  3
B0
350
6D1
  3
B1
350
6D2
  3
B2
350
6D3
  3
B3
350
6D4
  3
B4
350
6D5
  3
B5
350
6D6
  3
B6
350
6D7
  0
DICTIONARY
  5
6C4
102
{ACAD_REACTORS
330
C
102
}
330
C
100
AcDbDictionary
281
     1
  3
Standard
350
6C5
  0
DICTIONARY
  5
6AA
102
{ACAD_REACTORS
330
C
102
}
330
C
100
AcDbDictionary
281
     1
  3
2dWireframe
350
6B0
  3
Basic
350
6AF
  3
Brighten
350
6B6
  3
ColorChange
350
6BA
  3
Conceptual
350
6B3
  3
Dim
350
6B5
  3
EdgeColorOff
350
6C2
  3
Facepattern
350
6B9
  3
Flat
350
6AB
  3
FlatWithEdges
350
6AC
  3
Gouraud
350
6AD
  3
GouraudWithEdges
350
6AE
  3
Hidden
350
6B2
  3
JitterOff
350
6C0
  3
Linepattern
350
6B8
  3
OverhangOff
350
6C1
  3
Realistic
350
6B4
  3
Shaded
350
6BF
  3
Shaded with edges
350
6BE
  3
Shades of Gray
350
6BB
  3
Sketchy
350
6BC
  3
Thicken
350
6B7
  3
Wireframe
350
6B1
  3
X-Ray
350
6BD
  0
XRECORD
  5
751
102
{ACAD_REACTORS
330
C
102
}
330
C
100
AcDbXrecord
280
     1
 90
        1
330
6C5
  0
DICTIONARY
  5
36
102
{ACAD_REACTORS
330
C
102
}
330
C
100
AcDbDictionary
281
     1
  3
CANNOSCALE
350
74A
  3
CMLEADERSTYLE
350
748
  3
CTABLESTYLE
350
747
  3
DIMADEC
350
37
  3
LAYEREVAL
350
74C
  3
LAYERNOTIFY
350
74D
  3
LIGHTINGUNITS
350
74B
  3
MSLTSCALE
350
749
  3
XCLIPFRAME
350
74E
  0
DICTIONARY
  5
6E8
102
{ACAD_REACTORS
330
6E7
102
}
330
6E7
100
AcDbDictionary
281
     1
  0
XRECORD
  5
6F6
102
{ACAD_REACTORS
330
6F5
102
}
330
6F5
100
AcDbXrecord
280
     1
290
     1
  0
XRECORD
  5
6F8
102
{ACAD_REACTORS
330
6F7
102
}
330
6F7
100
AcDbXrecord
280
     1
290
     1
  0
LAYOUT
  5
5E6
102
{ACAD_REACTORS
330
5E3
102
}
330
5E3
100
AcDbPlotSettings
  1

  2
\\CLOPAY\rus_engrec_pq
  4

  6

 40
0.0
 41
0.0
 42
0.0
 43
0.0
 44
0.0
 45
0.0
 46
0.0
 47
0.0
 48
0.0
 49
0.0
140
0.0
141
0.0
142
1.0
143
1.0
 70
   688
 72
     0
 73
     0
 74
     5
  7
monochrome.ctb
 75
    16
147
1.0
 76
     0
 77
     2
 78
   300
148
0.0
149
0.0
100
AcDbLayout
  1
Layout1
 70
     0
 71
     1
 10
0.0
 20
0.0
 11
12.0
 21
9.0
 12
0.0
 22
0.0
 32
0.0
 14
1.000000000000000E+20
 24
1.000000000000000E+20
 34
1.000000000000000E+20
 15
-1.000000000000000E+20
 25
-1.000000000000000E+20
 35
-1.000000000000000E+20
146
0.0
 13
0.0
 23
0.0
 33
0.0
 16
1.0
 26
0.0
 36
0.0
 17
0.0
 27
1.0
 37
0.0
 76
     0
330
14
  0
LAYOUT
  5
5E5
102
{ACAD_XDICTIONARY
360
709
102
}
102
{ACAD_REACTORS
330
5E3
102
}
330
5E3
100
AcDbPlotSettings
  1

  2
none_device
  4
Letter_(8.50_x_11.00_Inches)
  6

 40
6.349999904632568
 41
6.349999904632568
 42
6.350006103515625
 43
6.350006103515625
 44
215.8999938964844
 45
279.3999938964844
 46
0.0
 47
0.0
 48
0.0
 49
0.0
140
0.0
141
0.0
142
1.0
143
1.319884887879235
 70
 11952
 72
     0
 73
     1
 74
     0
  7
monochrome.ctb
 75
     0
147
0.7576418286042961
 76
     0
 77
     2
 78
   300
148
45.37904299918738
149
12.57014813227822
100
AcDbLayout
  1
Model
 70
     1
 71
     0
 10
0.0
 20
0.0
 11
12.0
 21
9.0
 12
0.0
 22
0.0
 32
0.0
 14
0.0
 24
0.0
 34
0.0
 15
0.0
 25
0.0
 35
0.0
146
0.0
 13
0.0
 23
0.0
 33
0.0
 16
1.0
 26
0.0
 36
0.0
 17
0.0
 27
1.0
 37
0.0
 76
     0
330
17
331
68F
1001
ACAD_PSEXT
1000
None
1000
None
1000
Not applicable
1000
The layout will not be plotted unless a new plotter configuration name is selected.
1070
     0
  0
MATERIAL
  5
69A
102
{ACAD_XDICTIONARY
360
69B
102
}
102
{ACAD_REACTORS
330
691
102
}
330
691
100
AcDbMaterial
  1
ByBlock
 72
     0
 43
0.0208333333333333
 43
0.0
 43
0.0
 43
0.0
 43
0.0
 43
0.0208333333333333
 43
0.0
 43
0.0
 43
0.0
 43
0.0
 43
1.0
 43
0.0
 43
0.0
 43
0.0
 43
0.0
 43
1.0
 77
     0
 47
0.0208333333333333
 47
0.0
 47
0.0
 47
0.0
 47
0.0
 47
0.0208333333333333
 47
0.0
 47
0.0
 47
0.0
 47
0.0
 47
1.0
 47
0.0
 47
0.0
 47
0.0
 47
0.0
 47
1.0
171
     0
 49
0.0208333333333333
 49
0.0
 49
0.0
 49
0.0
 49
0.0
 49
0.0208333333333333
 49
0.0
 49
0.0
 49
0.0
 49
0.0
 49
1.0
 49
0.0
 49
0.0
 49
0.0
 49
0.0
 49
1.0
175
     0
142
0.0208333333333333
142
0.0
142
0.0
142
0.0
142
0.0
142
0.0208333333333333
142
0.0
142
0.0
142
0.0
142
0.0
142
1.0
142
0.0
142
0.0
142
0.0
142
0.0
142
1.0
179
     0
144
0.0208333333333333
144
0.0
144
0.0
144
0.0
144
0.0
144
0.0208333333333333
144
0.0
144
0.0
144
0.0
144
0.0
144
1.0
144
0.0
144
0.0
144
0.0
144
0.0
144
1.0
147
0.0208333333333333
147
0.0
147
0.0
147
0.0
147
0.0
147
0.0208333333333333
147
0.0
147
0.0
147
0.0
147
0.0
147
1.0
147
0.0
147
0.0
147
0.0
147
0.0
147
1.0
  0
MATERIAL
  5
692
102
{ACAD_XDICTIONARY
360
693
102
}
102
{ACAD_REACTORS
330
691
102
}
330
691
100
AcDbMaterial
  1
ByLayer
 72
     0
 43
0.0208333333333333
 43
0.0
 43
0.0
 43
0.0
 43
0.0
 43
0.0208333333333333
 43
0.0
 43
0.0
 43
0.0
 43
0.0
 43
1.0
 43
0.0
 43
0.0
 43
0.0
 43
0.0
 43
1.0
 77
     0
 47
0.0208333333333333
 47
0.0
 47
0.0
 47
0.0
 47
0.0
 47
0.0208333333333333
 47
0.0
 47
0.0
 47
0.0
 47
0.0
 47
1.0
 47
0.0
 47
0.0
 47
0.0
 47
0.0
 47
1.0
171
     0
 49
0.0208333333333333
 49
0.0
 49
0.0
 49
0.0
 49
0.0
 49
0.0208333333333333
 49
0.0
 49
0.0
 49
0.0
 49
0.0
 49
1.0
 49
0.0
 49
0.0
 49
0.0
 49
0.0
 49
1.0
175
     0
142
0.0208333333333333
142
0.0
142
0.0
142
0.0
142
0.0
142
0.0208333333333333
142
0.0
142
0.0
142
0.0
142
0.0
142
1.0
142
0.0
142
0.0
142
0.0
142
0.0
142
1.0
179
     0
144
0.0208333333333333
144
0.0
144
0.0
144
0.0
144
0.0
144
0.0208333333333333
144
0.0
144
0.0
144
0.0
144
0.0
144
1.0
144
0.0
144
0.0
144
0.0
144
0.0
144
1.0
147
0.0208333333333333
147
0.0
147
0.0
147
0.0
147
0.0
147
0.0208333333333333
147
0.0
147
0.0
147
0.0
147
0.0
147
1.0
147
0.0
147
0.0
147
0.0
147
0.0
147
1.0
  0
MATERIAL
  5
6A2
102
{ACAD_XDICTIONARY
360
6A3
102
}
102
{ACAD_REACTORS
330
691
102
}
330
691
100
AcDbMaterial
  1
Global
 72
     0
 43
0.0208333333333333
 43
0.0
 43
0.0
 43
0.0
 43
0.0
 43
0.0208333333333333
 43
0.0
 43
0.0
 43
0.0
 43
0.0
 43
1.0
 43
0.0
 43
0.0
 43
0.0
 43
0.0
 43
1.0
 77
     0
 47
0.0208333333333333
 47
0.0
 47
0.0
 47
0.0
 47
0.0
 47
0.0208333333333333
 47
0.0
 47
0.0
 47
0.0
 47
0.0
 47
1.0
 47
0.0
 47
0.0
 47
0.0
 47
0.0
 47
1.0
171
     0
 49
0.0208333333333333
 49
0.0
 49
0.0
 49
0.0
 49
0.0
 49
0.0208333333333333
 49
0.0
 49
0.0
 49
0.0
 49
0.0
 49
1.0
 49
0.0
 49
0.0
 49
0.0
 49
0.0
 49
1.0
175
     0
142
0.0208333333333333
142
0.0
142
0.0
142
0.0
142
0.0
142
0.0208333333333333
142
0.0
142
0.0
142
0.0
142
0.0
142
1.0
142
0.0
142
0.0
142
0.0
142
0.0
142
1.0
179
     0
144
0.0208333333333333
144
0.0
144
0.0
144
0.0
144
0.0
144
0.0208333333333333
144
0.0
144
0.0
144
0.0
144
0.0
144
1.0
144
0.0
144
0.0
144
0.0
144
0.0
144
1.0
147
0.0208333333333333
147
0.0
147
0.0
147
0.0
147
0.0
147
0.0208333333333333
147
0.0
147
0.0
147
0.0
147
0.0
147
1.0
147
0.0
147
0.0
147
0.0
147
0.0
147
1.0
  0
MLEADERSTYLE
  5
6D9
102
{ACAD_REACTORS
330
6D8
102
}
330
6D8
100
AcDbMLeaderStyle
170
     2
171
     1
172
     0
 90
        2
 40
0.0
 41
0.0
173
     1
 91
-1056964608
340
11
 92
       -2
290
     1
 42
0.09
291
     1
 43
0.36
  3
Standard
 44
0.18
300

342
F
174
     1
178
     6
175
     1
176
     0
 93
-1056964608
 45
0.18
292
     0
297
     0
 46
0.18
 94
-1056964608
 47
1.0
 49
1.0
140
1.0
293
     1
141
0.0
294
     1
177
     0
142
1.0
295
     0
296
     0
143
0.125
1001
ACAD_MLEADERVER
1070
     2
  0
MLINESTYLE
  5
1B
102
{ACAD_REACTORS
330
1A
102
}
330
1A
100
AcDbMlineStyle
  2
STANDARD
 70
     0
  3

 62
   256
 51
90.0
 52
90.0
 71
     2
 49
0.5
 62
   256
  6
BYLAYER
 49
-0.5
 62
   256
  6
BYLAYER
  0
ACDBPLACEHOLDER
  5
5E2
102
{ACAD_REACTORS
330
5E1
102
}
330
5E1
  0
SCALE
  5
6C7
102
{ACAD_REACTORS
330
6C6
102
}
330
6C6
100
AcDbScale
 70
     0
300
1:1
140
1.0
141
1.0
290
     1
  0
SCALE
  5
6C8
102
{ACAD_REACTORS
330
6C6
102
}
330
6C6
100
AcDbScale
 70
     0
300
1/128" = 1'-0"
140
0.0078125
141
12.0
290
     0
  0
SCALE
  5
6C9
102
{ACAD_REACTORS
330
6C6
102
}
330
6C6
100
AcDbScale
 70
     0
300
1/64" = 1'-0"
140
0.015625
141
12.0
290
     0
  0
SCALE
  5
6CA
102
{ACAD_REACTORS
330
6C6
102
}
330
6C6
100
AcDbScale
 70
     0
300
1/32" = 1'-0"
140
0.03125
141
12.0
290
     0
  0
SCALE
  5
6CB
102
{ACAD_REACTORS
330
6C6
102
}
330
6C6
100
AcDbScale
 70
     0
300
1/16" = 1'-0"
140
0.0625
141
12.0
290
     0
  0
SCALE
  5
6CC
102
{ACAD_REACTORS
330
6C6
102
}
330
6C6
100
AcDbScale
 70
     0
300
3/32" = 1'-0"
140
0.09375
141
12.0
290
     0
  0
SCALE
  5
6CD
102
{ACAD_REACTORS
330
6C6
102
}
330
6C6
100
AcDbScale
 70
     0
300
1/8" = 1'-0"
140
0.125
141
12.0
290
     0
  0
SCALE
  5
6CE
102
{ACAD_REACTORS
330
6C6
102
}
330
6C6
100
AcDbScale
 70
     0
300
3/16" = 1'-0"
140
0.1875
141
12.0
290
     0
  0
SCALE
  5
6CF
102
{ACAD_REACTORS
330
6C6
102
}
330
6C6
100
AcDbScale
 70
     0
300
1/4" = 1'-0"
140
0.25
141
12.0
290
     0
  0
SCALE
  5
6D0
102
{ACAD_REACTORS
330
6C6
102
}
330
6C6
100
AcDbScale
 70
     0
300
3/8" = 1'-0"
140
0.375
141
12.0
290
     0
  0
SCALE
  5
6D1
102
{ACAD_REACTORS
330
6C6
102
}
330
6C6
100
AcDbScale
 70
     0
300
1/2" = 1'-0"
140
0.5
141
12.0
290
     0
  0
SCALE
  5
6D2
102
{ACAD_REACTORS
330
6C6
102
}
330
6C6
100
AcDbScale
 70
     0
300
3/4" = 1'-0"
140
0.75
141
12.0
290
     0
  0
SCALE
  5
6D3
102
{ACAD_REACTORS
330
6C6
102
}
330
6C6
100
AcDbScale
 70
     0
300
1" = 1'-0"
140
1.0
141
12.0
290
     0
  0
SCALE
  5
6D4
102
{ACAD_REACTORS
330
6C6
102
}
330
6C6
100
AcDbScale
 70
     0
300
1-1/2" = 1'-0"
140
1.5
141
12.0
290
     0
  0
SCALE
  5
6D5
102
{ACAD_REACTORS
330
6C6
102
}
330
6C6
100
AcDbScale
 70
     0
300
3" = 1'-0"
140
3.0
141
12.0
290
     0
  0
SCALE
  5
6D6
102
{ACAD_REACTORS
330
6C6
102
}
330
6C6
100
AcDbScale
 70
     0
300
6" = 1'-0"
140
6.0
141
12.0
290
     0
  0
SCALE
  5
6D7
102
{ACAD_REACTORS
330
6C6
102
}
330
6C6
100
AcDbScale
 70
     0
300
1'-0" = 1'-0"
140
12.0
141
12.0
290
     0
  0
TABLESTYLE
  5
6C5
102
{ACAD_XDICTIONARY
360
74F
102
}
102
{ACAD_REACTORS
330
6C4
102
}
330
6C4
100
AcDbTableStyle
  3
Standard
 70
     0
 71
     0
 40
0.06
 41
0.06
280
     0
281
     0
  7
STANDARD
140
0.18
170
     2
 62
     0
 63
     7
283
     0
 90
      512
 91
        0
  1

274
    -2
284
     1
 64
     0
275
    -2
285
     1
 65
     0
276
    -2
286
     1
 66
     0
277
    -2
287
     1
 67
     0
278
    -2
288
     1
 68
     0
279
    -2
289
     1
 69
     0
  7
STANDARD
140
0.25
170
     5
 62
     0
 63
     7
283
     0
 90
      512
 91
        0
  1

274
    -2
284
     1
 64
     0
275
    -2
285
     1
 65
     0
276
    -2
286
     1
 66
     0
277
    -2
287
     1
 67
     0
278
    -2
288
     1
 68
     0
279
    -2
289
     1
 69
     0
  7
STANDARD
140
0.18
170
     5
 62
     0
 63
     7
283
     0
 90
      512
 91
        0
  1

274
    -2
284
     1
 64
     0
275
    -2
285
     1
 65
     0
276
    -2
286
     1
 66
     0
277
    -2
287
     1
 67
     0
278
    -2
288
     1
 68
     0
279
    -2
289
     1
 69
     0
  0
VISUALSTYLE
  5
6B0
102
{ACAD_XDICTIONARY
360
75C
102
}
102
{ACAD_REACTORS
330
6AA
102
}
330
6AA
100
AcDbVisualStyle
  2
2dWireframe
 70
     4
 71
     0
 72
     2
 73
     0
 90
        0
 40
-0.6
 41
-30.0
 62
     5
 63
     7
421
 16777215
 74
     1
 91
        4
 64
     7
 65
   257
 75
     1
175
     1
 42
1.0
 92
        0
 66
   257
 43
1.0
 76
     1
 77
     6
 78
     2
 67
     7
 79
     5
170
     0
171
     0
290
     0
174
     0
 93
        1
 44
0.0
173
     0
291
     0
 45
0.0
1001
ACAD
1000
AcDbSavedByObjectVersion
1070
     0
  0
VISUALSTYLE
  5
6AF
102
{ACAD_XDICTIONARY
360
75A
102
}
102
{ACAD_REACTORS
330
6AA
102
}
330
6AA
100
AcDbVisualStyle
  2
Basic
 70
     7
 71
     1
 72
     0
 73
     1
 90
        0
 40
-0.6
 41
-30.0
 62
     5
 63
     7
421
 16777215
 74
     0
 91
        4
 64
     7
 65
   257
 75
     1
175
     1
 42
1.0
 92
        8
 66
     7
 43
1.0
 76
     1
 77
     6
 78
     2
 67
     7
 79
     5
170
     0
171
     0
290
     0
174
     0
 93
        1
 44
0.0
173
     0
291
     1
 45
0.0
1001
ACAD
1000
AcDbSavedByObjectVersion
1070
     0
  0
VISUALSTYLE
  5
6B6
102
{ACAD_XDICTIONARY
360
768
102
}
102
{ACAD_REACTORS
330
6AA
102
}
330
6AA
100
AcDbVisualStyle
  2
Brighten
 70
    12
 71
     2
 72
     2
 73
     0
 90
        0
 40
-0.6
 41
-30.0
 62
     5
 63
     7
421
 16777215
 74
     1
 91
        4
 64
     7
 65
   257
 75
     1
175
     1
 42
1.0
 92
        8
 66
     7
 43
1.0
 76
     1
 77
     6
 78
     2
 67
     7
 79
     5
170
     0
171
     0
290
     0
174
     0
 93
        1
 44
50.0
173
     0
291
     1
 45
0.0
1001
ACAD
1000
AcDbSavedByObjectVersion
1070
     0
  0
VISUALSTYLE
  5
6BA
102
{ACAD_XDICTIONARY
360
770
102
}
102
{ACAD_REACTORS
330
6AA
102
}
330
6AA
100
AcDbVisualStyle
  2
ColorChange
 70
    16
 71
     2
 72
     2
 73
     3
 90
        0
 40
-0.6
 41
-30.0
 62
     5
 63
     8
421
  8421504
 74
     1
 91
        4
 64
     7
 65
   257
 75
     1
175
     1
 42
1.0
 92
        8
 66
     8
424
  8421504
 43
1.0
 76
     1
 77
     6
 78
     2
 67
     7
 79
     5
170
     0
171
     0
290
     0
174
     0
 93
        1
 44
0.0
173
     0
291
     1
 45
0.0
1001
ACAD
1000
AcDbSavedByObjectVersion
1070
     0
  0
VISUALSTYLE
  5
6B3
102
{ACAD_XDICTIONARY
360
762
102
}
102
{ACAD_REACTORS
330
6AA
102
}
330
6AA
100
AcDbVisualStyle
  2
Conceptual
 70
     9
 71
     3
 72
     2
 73
     0
 90
        0
 40
-0.6
 41
-30.0
 62
     5
 63
     7
421
 16777215
 74
     2
 91
        2
 64
     7
 65
   257
 75
     1
175
     1
 42
179.0
 92
        8
 66
     7
 43
1.0
 76
     1
 77
     6
 78
     2
 67
     7
 79
     3
170
     0
171
     0
290
     0
174
     0
 93
        1
 44
0.0
173
     0
291
     0
 45
0.0
1001
ACAD
1000
AcDbSavedByObjectVersion
1070
     0
  0
VISUALSTYLE
  5
6B5
102
{ACAD_XDICTIONARY
360
766
102
}
102
{ACAD_REACTORS
330
6AA
102
}
330
6AA
100
AcDbVisualStyle
  2
Dim
 70
    11
 71
     2
 72
     2
 73
     0
 90
        0
 40
-0.6
 41
-30.0
 62
     5
 63
     7
421
 16777215
 74
     1
 91
        4
 64
     7
 65
   257
 75
     1
175
     1
 42
1.0
 92
        8
 66
     7
 43
1.0
 76
     1
 77
     6
 78
     2
 67
     7
 79
     5
170
     0
171
     0
290
     0
174
     0
 93
        1
 44
-50.0
173
     0
291
     1
 45
0.0
1001
ACAD
1000
AcDbSavedByObjectVersion
1070
     0
  0
VISUALSTYLE
  5
6C2
102
{ACAD_XDICTIONARY
360
780
102
}
102
{ACAD_REACTORS
330
6AA
102
}
330
6AA
100
AcDbVisualStyle
  2
EdgeColorOff
 70
    22
 71
     2
 72
     2
 73
     0
 90
        0
 40
-0.6
 41
-30.0
 62
     5
 63
     7
421
 16777215
 74
     1
 91
        4
 64
     7
 65
   257
 75
     1
175
     1
 42
1.0
 92
        8
 66
     7
 43
1.0
 76
     1
 77
     6
 78
     2
 67
     7
 79
     5
170
     0
171
     0
290
     0
174
     0
 93
        1
 44
0.0
173
     0
291
     1
 45
0.0
1001
ACAD
1000
AcDbSavedByObjectVersion
1070
     0
  0
VISUALSTYLE
  5
6B9
102
{ACAD_XDICTIONARY
360
76E
102
}
102
{ACAD_REACTORS
330
6AA
102
}
330
6AA
100
AcDbVisualStyle
  2
Facepattern
 70
    15
 71
     2
 72
     2
 73
     0
 90
        0
 40
-0.6
 41
-30.0
 62
     5
 63
     7
421
 16777215
 74
     1
 91
        4
 64
     7
 65
   257
 75
     1
175
     1
 42
1.0
 92
        8
 66
     7
 43
1.0
 76
     1
 77
     6
 78
     2
 67
     7
 79
     5
170
     0
171
     0
290
     0
174
     0
 93
        1
 44
0.0
173
     0
291
     1
 45
0.0
1001
ACAD
1000
AcDbSavedByObjectVersion
1070
     0
  0
VISUALSTYLE
  5
6AB
102
{ACAD_XDICTIONARY
360
752
102
}
102
{ACAD_REACTORS
330
6AA
102
}
330
6AA
100
AcDbVisualStyle
  2
Flat
 70
     0
 71
     2
 72
     1
 73
     1
 90
        2
 40
-0.6
 41
30.0
 62
     5
 63
     7
421
 16777215
 74
     0
 91
        0
 64
     7
 65
   257
 75
     1
175
     1
 42
1.0
 92
        8
 66
     7
 43
1.0
 76
     1
 77
     6
 78
     2
 67
     7
 79
     5
170
     0
171
     0
290
     0
174
     0
 93
       13
 44
0.0
173
     0
291
     1
 45
0.0
1001
ACAD
1000
AcDbSavedByObjectVersion
1070
     0
  0
VISUALSTYLE
  5
6AC
102
{ACAD_XDICTIONARY
360
754
102
}
102
{ACAD_REACTORS
330
6AA
102
}
330
6AA
100
AcDbVisualStyle
  2
FlatWithEdges
 70
     1
 71
     2
 72
     1
 73
     1
 90
        2
 40
-0.6
 41
30.0
 62
     5
 63
     7
421
 16777215
 74
     1
 91
        0
 64
     7
 65
   257
 75
     1
175
     1
 42
1.0
 92
        0
 66
   257
 43
1.0
 76
     1
 77
     6
 78
     2
 67
     7
 79
     5
170
     0
171
     0
290
     0
174
     0
 93
       13
 44
0.0
173
     0
291
     1
 45
0.0
1001
ACAD
1000
AcDbSavedByObjectVersion
1070
     0
  0
VISUALSTYLE
  5
6AD
102
{ACAD_XDICTIONARY
360
756
102
}
102
{ACAD_REACTORS
330
6AA
102
}
330
6AA
100
AcDbVisualStyle
  2
Gouraud
 70
     2
 71
     2
 72
     2
 73
     1
 90
        2
 40
-0.6
 41
30.0
 62
     5
 63
     7
421
 16777215
 74
     0
 91
        0
 64
     7
 65
   257
 75
     1
175
     1
 42
1.0
 92
        0
 66
     7
 43
1.0
 76
     1
 77
     6
 78
     2
 67
     7
 79
     5
170
     0
171
     0
290
     0
174
     0
 93
       13
 44
0.0
173
     0
291
     1
 45
0.0
1001
ACAD
1000
AcDbSavedByObjectVersion
1070
     0
  0
VISUALSTYLE
  5
6AE
102
{ACAD_XDICTIONARY
360
758
102
}
102
{ACAD_REACTORS
330
6AA
102
}
330
6AA
100
AcDbVisualStyle
  2
GouraudWithEdges
 70
     3
 71
     2
 72
     2
 73
     1
 90
        2
 40
-0.6
 41
30.0
 62
     5
 63
     7
421
 16777215
 74
     1
 91
        0
 64
     7
 65
   257
 75
     1
175
     1
 42
1.0
 92
        0
 66
   257
 43
1.0
 76
     1
 77
     6
 78
     2
 67
     7
 79
     5
170
     0
171
     0
290
     0
174
     0
 93
       13
 44
0.0
173
     0
291
     1
 45
0.0
1001
ACAD
1000
AcDbSavedByObjectVersion
1070
     0
  0
VISUALSTYLE
  5
6B2
102
{ACAD_XDICTIONARY
360
760
102
}
102
{ACAD_REACTORS
330
6AA
102
}
330
6AA
100
AcDbVisualStyle
  2
Hidden
 70
     6
 71
     1
 72
     2
 73
     2
 90
        0
 40
-0.6
 41
-30.0
 62
     5
 63
     7
421
 16777215
 74
     2
 91
        2
 64
     7
 65
   257
 75
     2
175
     1
 42
40.0
 92
        0
 66
   257
 43
1.0
 76
     1
 77
     6
 78
     2
 67
     7
 79
     3
170
     0
171
     0
290
     0
174
     0
 93
        1
 44
0.0
173
     0
291
     0
 45
0.0
1001
ACAD
1000
AcDbSavedByObjectVersion
1070
     0
  0
VISUALSTYLE
  5
6C0
102
{ACAD_XDICTIONARY
360
77C
102
}
102
{ACAD_REACTORS
330
6AA
102
}
330
6AA
100
AcDbVisualStyle
  2
JitterOff
 70
    20
 71
     2
 72
     2
 73
     0
 90
        0
 40
-0.6
 41
-30.0
 62
     5
 63
     7
421
 16777215
 74
     1
 91
        4
 64
     7
 65
   257
 75
     1
175
     1
 42
1.0
 92
       10
 66
     7
 43
1.0
 76
     1
 77
     6
 78
     2
 67
     7
 79
     5
170
     0
171
     0
290
     0
174
     0
 93
        1
 44
0.0
173
     0
291
     1
 45
0.0
1001
ACAD
1000
AcDbSavedByObjectVersion
1070
     0
  0
VISUALSTYLE
  5
6B8
102
{ACAD_XDICTIONARY
360
76C
102
}
102
{ACAD_REACTORS
330
6AA
102
}
330
6AA
100
AcDbVisualStyle
  2
Linepattern
 70
    14
 71
     2
 72
     2
 73
     0
 90
        0
 40
-0.6
 41
-30.0
 62
     5
 63
     7
421
 16777215
 74
     1
 91
        4
 64
     7
 65
   257
 75
     7
175
     7
 42
1.0
 92
        8
 66
     7
 43
1.0
 76
     1
 77
     6
 78
     2
 67
     7
 79
     5
170
     0
171
     0
290
     0
174
     0
 93
        1
 44
0.0
173
     0
291
     1
 45
0.0
1001
ACAD
1000
AcDbSavedByObjectVersion
1070
     0
  0
VISUALSTYLE
  5
6C1
102
{ACAD_XDICTIONARY
360
77E
102
}
102
{ACAD_REACTORS
330
6AA
102
}
330
6AA
100
AcDbVisualStyle
  2
OverhangOff
 70
    21
 71
     2
 72
     2
 73
     0
 90
        0
 40
-0.6
 41
-30.0
 62
     5
 63
     7
421
 16777215
 74
     1
 91
        4
 64
     7
 65
   257
 75
     1
175
     1
 42
1.0
 92
        9
 66
     7
 43
1.0
 76
     1
 77
     6
 78
     2
 67
     7
 79
     5
170
     0
171
     0
290
     0
174
     0
 93
        1
 44
0.0
173
     0
291
     1
 45
0.0
1001
ACAD
1000
AcDbSavedByObjectVersion
1070
     0
  0
VISUALSTYLE
  5
6B4
102
{ACAD_XDICTIONARY
360
764
102
}
102
{ACAD_REACTORS
330
6AA
102
}
330
6AA
100
AcDbVisualStyle
  2
Realistic
 70
     8
 71
     2
 72
     3
 73
     0
 90
        2
 40
-0.6
 41
30.0
 62
     5
 63
     7
421
 16777215
 74
     0
 91
        0
 64
     7
 65
   257
 75
     1
175
     1
 42
1.0
 92
        8
 66
   257
 43
1.0
 76
     1
 77
     6
 78
     2
 67
     7
 79
     3
170
     0
171
     0
290
     0
174
     0
 93
       13
 44
0.0
173
     0
291
     0
 45
0.0
1001
ACAD
1000
AcDbSavedByObjectVersion
1070
     0
  0
VISUALSTYLE
  5
6BF
102
{ACAD_XDICTIONARY
360
77A
102
}
102
{ACAD_REACTORS
330
6AA
102
}
330
6AA
100
AcDbVisualStyle
  2
Shaded
 70
    27
 71
     2
 72
     2
 73
     1
 90
        2
 40
-0.6
 41
30.0
 62
     5
 63
     7
421
 16777215
 74
     0
 91
        4
 64
     7
 65
   257
 75
     1
175
     1
 42
1.0
 92
        8
 66
   257
 43
1.0
 76
     1
 77
     6
 78
     2
 67
     8
425
  7895160
 79
     3
170
     0
171
     0
290
     0
174
     0
 93
        5
 44
0.0
173
     0
291
     0
 45
0.0
1001
ACAD
1000
AcDbSavedByObjectVersion
1070
     0
  0
VISUALSTYLE
  5
6BE
102
{ACAD_XDICTIONARY
360
778
102
}
102
{ACAD_REACTORS
330
6AA
102
}
330
6AA
100
AcDbVisualStyle
  2
Shaded with edges
 70
    26
 71
     2
 72
     2
 73
     1
 90
        2
 40
-0.6
 41
30.0
 62
     5
 63
     7
421
 16777215
 74
     1
 91
       10
 64
     7
 65
   257
 75
     2
175
     1
 42
1.0
 92
        8
 66
   257
 43
1.0
 76
     1
 77
     6
 78
     2
 67
     7
 79
     3
170
     0
171
     0
290
     0
174
     0
 93
        5
 44
0.0
173
     0
291
     0
 45
0.0
1001
ACAD
1000
AcDbSavedByObjectVersion
1070
     0
  0
VISUALSTYLE
  5
6BB
102
{ACAD_XDICTIONARY
360
772
102
}
102
{ACAD_REACTORS
330
6AA
102
}
330
6AA
100
AcDbVisualStyle
  2
Shades of Gray
 70
    23
 71
     2
 72
     2
 73
     3
 90
        0
 40
-0.6
 41
-30.0
 62
     5
 63
     7
421
 16777215
 74
     2
 91
        2
 64
     7
 65
     7
 75
     1
175
     1
 42
40.0
 92
        8
 66
     7
 43
1.0
 76
     1
 77
     6
 78
     2
 67
     7
 79
     3
170
     0
171
     0
290
     0
174
     0
 93
        1
 44
0.0
173
     0
291
     0
 45
0.0
1001
ACAD
1000
AcDbSavedByObjectVersion
1070
     0
  0
VISUALSTYLE
  5
6BC
102
{ACAD_XDICTIONARY
360
774
102
}
102
{ACAD_REACTORS
330
6AA
102
}
330
6AA
100
AcDbVisualStyle
  2
Sketchy
 70
    24
 71
     1
 72
     2
 73
     2
 90
        0
 40
-0.6
 41
-30.0
 62
     5
 63
     7
421
 16777215
 74
     2
 91
        2
 64
     7
 65
     7
 75
     1
175
     1
 42
40.0
 92
       11
 66
     7
 43
1.0
 76
     1
 77
     6
 78
     2
 67
     7
 79
     6
170
     0
171
     0
290
     0
174
     0
 93
        1
 44
0.0
173
     0
291
     0
 45
0.0
1001
ACAD
1000
AcDbSavedByObjectVersion
1070
     0
  0
VISUALSTYLE
  5
6B7
102
{ACAD_XDICTIONARY
360
76A
102
}
102
{ACAD_REACTORS
330
6AA
102
}
330
6AA
100
AcDbVisualStyle
  2
Thicken
 70
    13
 71
     2
 72
     2
 73
     0
 90
        0
 40
-0.6
 41
-30.0
 62
     5
 63
     7
421
 16777215
 74
     1
 91
        4
 64
     7
 65
   257
 75
     1
175
     1
 42
1.0
 92
       12
 66
     7
 43
1.0
 76
     1
 77
     6
 78
     2
 67
     7
 79
     5
170
     0
171
     0
290
     0
174
     0
 93
        1
 44
0.0
173
     0
291
     1
 45
0.0
1001
ACAD
1000
AcDbSavedByObjectVersion
1070
     0
  0
VISUALSTYLE
  5
6B1
102
{ACAD_XDICTIONARY
360
75E
102
}
102
{ACAD_REACTORS
330
6AA
102
}
330
6AA
100
AcDbVisualStyle
  2
Wireframe
 70
     5
 71
     0
 72
     2
 73
     0
 90
        0
 40
-0.6
 41
-30.0
 62
     5
 63
     7
421
 16777215
 74
     1
 91
        4
 64
     7
 65
   257
 75
     1
175
     1
 42
1.0
 92
        0
 66
   257
 43
1.0
 76
     1
 77
     6
 78
     2
 67
     7
 79
     3
170
     0
171
     0
290
     0
174
     0
 93
        1
 44
0.0
173
     0
291
     0
 45
0.0
1001
ACAD
1000
AcDbSavedByObjectVersion
1070
     0
  0
VISUALSTYLE
  5
6BD
102
{ACAD_XDICTIONARY
360
776
102
}
102
{ACAD_REACTORS
330
6AA
102
}
330
6AA
100
AcDbVisualStyle
  2
X-Ray
 70
    25
 71
     2
 72
     2
 73
     1
 90
        1
 40
0.5
 41
-30.0
 62
     5
 63
     7
421
 16777215
 74
     1
 91
        0
 64
     7
 65
   257
 75
     1
175
     1
 42
1.0
 92
        8
 66
     7
 43
1.0
 76
     1
 77
     6
 78
     2
 67
     7
 79
     3
170
     0
171
     0
290
     0
174
     0
 93
       13
 44
0.0
173
     0
291
     0
 45
0.0
1001
ACAD
1000
AcDbSavedByObjectVersion
1070
     0
  0
DICTIONARYVAR
  5
74A
102
{ACAD_REACTORS
330
36
102
}
330
36
100
DictionaryVariables
280
     0
  1
1:1
  0
DICTIONARYVAR
  5
748
102
{ACAD_REACTORS
330
36
102
}
330
36
100
DictionaryVariables
280
     0
  1
STANDARD
  0
DICTIONARYVAR
  5
747
102
{ACAD_REACTORS
330
36
102
}
330
36
100
DictionaryVariables
280
     0
  1
STANDARD
  0
DICTIONARYVAR
  5
37
102
{ACAD_REACTORS
330
36
102
}
330
36
100
DictionaryVariables
280
     0
  1
0
  0
DICTIONARYVAR
  5
74C
102
{ACAD_REACTORS
330
36
102
}
330
36
100
DictionaryVariables
280
     0
  1
1
  0
DICTIONARYVAR
  5
74D
102
{ACAD_REACTORS
330
36
102
}
330
36
100
DictionaryVariables
280
     0
  1
15
  0
DICTIONARYVAR
  5
74B
102
{ACAD_REACTORS
330
36
102
}
330
36
100
DictionaryVariables
280
     0
  1
0
  0
DICTIONARYVAR
  5
749
102
{ACAD_REACTORS
330
36
102
}
330
36
100
DictionaryVariables
280
     0
  1
0
  0
DICTIONARYVAR
  5
74E
102
{ACAD_REACTORS
330
36
102
}
330
36
100
DictionaryVariables
280
     0
  1
2
  0
DICTIONARY
  5
709
330
5E5
100
AcDbDictionary
280
     1
281
     1
  3
ADSK_XREC_LAYOUTTHUMBNAIL
360
70A
  0
DICTIONARY
  5
69B
330
69A
100
AcDbDictionary
280
     1
281
     1
  3
BUMPTILE
360
69D
  3
DIFFUSETILE
360
69C
  3
OPACITYTILE
360
6A0
  3
REFLECTIONTILE
360
69F
  3
REFRACTIONTILE
360
6A1
  3
SPECULARTILE
360
69E
  0
DICTIONARY
  5
693
330
692
100
AcDbDictionary
280
     1
281
     1
  3
BUMPTILE
360
695
  3
DIFFUSETILE
360
694
  3
OPACITYTILE
360
698
  3
REFLECTIONTILE
360
697
  3
REFRACTIONTILE
360
699
  3
SPECULARTILE
360
696
  0
DICTIONARY
  5
6A3
330
6A2
100
AcDbDictionary
280
     1
281
     1
  3
BUMPTILE
360
6A5
  3
DIFFUSETILE
360
6A4
  3
OPACITYTILE
360
6A8
  3
REFLECTIONTILE
360
6A7
  3
REFRACTIONTILE
360
6A9
  3
SPECULARTILE
360
6A6
  0
DICTIONARY
  5
74F
330
6C5
100
AcDbDictionary
280
     1
281
     1
  3
ACAD_ROUNDTRIP_2008_TABLESTYLE_CELLSTYLEMAP
360
750
  0
DICTIONARY
  5
75C
330
6B0
100
AcDbDictionary
280
     1
281
     1
  3
ACAD_XREC_ROUNDTRIP
360
75D
  0
DICTIONARY
  5
75A
330
6AF
100
AcDbDictionary
280
     1
281
     1
  3
ACAD_XREC_ROUNDTRIP
360
75B
  0
DICTIONARY
  5
768
330
6B6
100
AcDbDictionary
280
     1
281
     1
  3
ACAD_XREC_ROUNDTRIP
360
769
  0
DICTIONARY
  5
770
330
6BA
100
AcDbDictionary
280
     1
281
     1
  3
ACAD_XREC_ROUNDTRIP
360
771
  0
DICTIONARY
  5
762
330
6B3
100
AcDbDictionary
280
     1
281
     1
  3
ACAD_XREC_ROUNDTRIP
360
763
  0
DICTIONARY
  5
766
330
6B5
100
AcDbDictionary
280
     1
281
     1
  3
ACAD_XREC_ROUNDTRIP
360
767
  0
DICTIONARY
  5
780
330
6C2
100
AcDbDictionary
280
     1
281
     1
  3
ACAD_XREC_ROUNDTRIP
360
781
  0
DICTIONARY
  5
76E
330
6B9
100
AcDbDictionary
280
     1
281
     1
  3
ACAD_XREC_ROUNDTRIP
360
76F
  0
DICTIONARY
  5
752
330
6AB
100
AcDbDictionary
280
     1
281
     1
  3
ACAD_XREC_ROUNDTRIP
360
753
  0
DICTIONARY
  5
754
330
6AC
100
AcDbDictionary
280
     1
281
     1
  3
ACAD_XREC_ROUNDTRIP
360
755
  0
DICTIONARY
  5
756
330
6AD
100
AcDbDictionary
280
     1
281
     1
  3
ACAD_XREC_ROUNDTRIP
360
757
  0
DICTIONARY
  5
758
330
6AE
100
AcDbDictionary
280
     1
281
     1
  3
ACAD_XREC_ROUNDTRIP
360
759
  0
DICTIONARY
  5
760
330
6B2
100
AcDbDictionary
280
     1
281
     1
  3
ACAD_XREC_ROUNDTRIP
360
761
  0
DICTIONARY
  5
77C
330
6C0
100
AcDbDictionary
280
     1
281
     1
  3
ACAD_XREC_ROUNDTRIP
360
77D
  0
DICTIONARY
  5
76C
330
6B8
100
AcDbDictionary
280
     1
281
     1
  3
ACAD_XREC_ROUNDTRIP
360
76D
  0
DICTIONARY
  5
77E
330
6C1
100
AcDbDictionary
280
     1
281
     1
  3
ACAD_XREC_ROUNDTRIP
360
77F
  0
DICTIONARY
  5
764
330
6B4
100
AcDbDictionary
280
     1
281
     1
  3
ACAD_XREC_ROUNDTRIP
360
765
  0
DICTIONARY
  5
77A
330
6BF
100
AcDbDictionary
280
     1
281
     1
  3
ACAD_XREC_ROUNDTRIP
360
77B
  0
DICTIONARY
  5
778
330
6BE
100
AcDbDictionary
280
     1
281
     1
  3
ACAD_XREC_ROUNDTRIP
360
779
  0
DICTIONARY
  5
772
330
6BB
100
AcDbDictionary
280
     1
281
     1
  3
ACAD_XREC_ROUNDTRIP
360
773
  0
DICTIONARY
  5
774
330
6BC
100
AcDbDictionary
280
     1
281
     1
  3
ACAD_XREC_ROUNDTRIP
360
775
  0
DICTIONARY
  5
76A
330
6B7
100
AcDbDictionary
280
     1
281
     1
  3
ACAD_XREC_ROUNDTRIP
360
76B
  0
DICTIONARY
  5
75E
330
6B1
100
AcDbDictionary
280
     1
281
     1
  3
ACAD_XREC_ROUNDTRIP
360
75F
  0
DICTIONARY
  5
776
330
6BD
100
AcDbDictionary
280
     1
281
     1
  3
ACAD_XREC_ROUNDTRIP
360
777
  0
XRECORD
  5
70A
102
{ACAD_REACTORS
330
709
102
}
330
709
100
AcDbXrecord
280
     1
310
2800000000010000B0000000010008000000000000B00000000000000000000000010000000000000000000000000000FFFFFF000000000000000000000000000000000000000000000000000000000000000000330000006600000099000000CC000000FF00000000330000333300006633000099330000CC330000FF3300
310
0000660000336600006666000099660000CC660000FF66000000990000339900006699000099990000CC990000FF99000000CC000033CC000066CC000099CC0000CCCC0000FFCC000000FF000033FF000066FF000099FF0000CCFF0000FFFF000000003300330033006600330099003300CC003300FF003300003333003333
310
33006633330099333300CC333300FF33330000663300336633006666330099663300CC663300FF66330000993300339933006699330099993300CC993300FF99330000CC330033CC330066CC330099CC3300CCCC3300FFCC330000FF330033FF330066FF330099FF3300CCFF3300FFFF330000006600330066006600660099
310
006600CC006600FF00660000336600333366006633660099336600CC336600FF33660000666600336666006666660099666600CC666600FF66660000996600339966006699660099996600CC996600FF99660000CC660033CC660066CC660099CC6600CCCC6600FFCC660000FF660033FF660066FF660099FF6600CCFF6600
310
FFFF660000009900330099006600990099009900CC009900FF00990000339900333399006633990099339900CC339900FF33990000669900336699006666990099669900CC669900FF66990000999900339999006699990099999900CC999900FF99990000CC990033CC990066CC990099CC9900CCCC9900FFCC990000FF99
310
0033FF990066FF990099FF9900CCFF9900FFFF99000000CC003300CC006600CC009900CC00CC00CC00FF00CC000033CC003333CC006633CC009933CC00CC33CC00FF33CC000066CC003366CC006666CC009966CC00CC66CC00FF66CC000099CC003399CC006699CC009999CC00CC99CC00FF99CC0000CCCC0033CCCC0066CC
310
CC0099CCCC00CCCCCC00FFCCCC0000FFCC0033FFCC0066FFCC0099FFCC00CCFFCC00FFFFCC000000FF003300FF006600FF009900FF00CC00FF00FF00FF000033FF003333FF006633FF009933FF00CC33FF00FF33FF000066FF003366FF006666FF009966FF00CC66FF00FF66FF000099FF003399FF006699FF009999FF00CC
310
99FF00FF99FF0000CCFF0033CCFF0066CCFF0099CCFF00CCCCFF00FFCCFF0000FFFF0033FFFF0066FFFF0099FFFF00CCFFFF00FFFFFF00000000000D0D0D001A1A1A00282828003535350043434300505050005D5D5D006B6B6B00787878008686860093939300A1A1A100AEAEAE00BBBBBB00C9C9C900D6D6D600E4E4E400
310
F1F1F100FFFFFF000000000000000000000000000000000000000000000000000000000000000000000000000000000000000000000000000000000000000000000000000000000000000000000000000000000000000000000000000000000000000000000000000000000000000000000000000000000000000000000000
310
00000000000000000000000000000000000000000000000000000000000000000000000000000000000000000000000000000000000000000000000000000000000000000000000000000000000000000000000000000000000000000000000000000000000000000000000000000000000000000000000000000000000000
310
00000000000000000000000000000000000000000000000000000000000000000000000000000000000000000000000000000000000000000000000000000000000000000000000000000000F50000000000000000000000000000000000000000000000000000000000000000000000000000000000000000000000000000
310
00000000000000000000000000000000000000000000000000000000000000000000000000000000000000000000000000000000000000000000000000000000000000000000000000000000000000000000000000000000000000000000000000000000000000000000000000000000000000000000000000000000000000
310
00000000000000000000000000000000000000000000000000F500000000000000000000000000000000000000000000000000000000000000000000000000000000000000000000000000000000F5000000000000000000000000000000000000000000000000000000000000000000000000000000000000000000000000
310
00000000000000000000000000000000000000000000000000000000000000000000000000000000000000000000000000000000000000000000000000000000000000000000000000000000000000000000000000000000000000000000000000000000000000000000000000000000000000000000000000000000000000
310
000000000000000000000000000000000000000000000000000000F500000000000000000000000000000000000000000000000000000000000000000000000000000000000000000000000000000000F500000000000000000000000000000000000000000000000000000000000000000000000000000000000000000000
310
00000000000000000000000000000000000000000000000000000000000000000000000000000000000000000000000000000000000000000000000000000000000000000000000000000000000000000000000000000000000000000000000000000000000000000000000000000000000000000000000000000000000000
310
0000000000000000000000000000000000000000000000000000000000F500000000000000000000000000000000000000000000000000000000000000000000000000000000000000000000000000000000000000000000000000000000000000000000000000000000000000000000000000000000000000000000000000
310
00000000000000000000000000000000000000000000000000000000000000000000000000000000000000000000000000000000000000000000000000000000000000000000000000000000000000000000000000000000000000000000000000000000000000000000000000000000000000000000000000000000000000
310
000000000000000000000000000000000000000000000000000000000000000000000000000000000000000000000000000000000000000000000000000000000000000000000000000000000000000000000000F5000000000000000000000000000000000000000000000000000000000000000000000000000000000000
310
00000000000000000000000000000000000000000000000000000000000000000000000000000000000000000000000000000000000000000000000000000000000000000000000000000000000000000000000000000000000000000000000000000000000000000000000000000000000000000000000000000000000000
310
000000000000000000000000000000000000000000000000000000000000000000F500000000000000000000000000000000000000000000000000000000000000000000000000000000000000000000000000000000F500000000000000000000000000000000000000000000000000000000000000000000000000000000
310
00000000000000000000000000000000000000000000000000000000000000000000000000000000000000000000000000000000000000000000000000000000000000000000000000000000000000000000000000000000000000000000000000000000000000000000000000000000000000000000000000000000000000
310
0000000000000000000000000000000000000000000000000000000000000000000000F500000000000000000000000000000000000000000000000000000000000000000000000000000000000000000000000000000000F50000000000000000000000000000000000000000000000000000000000000000000000000000
310
00000000000000000000000000000000000000000000000000000000000000000000000000000000000000000000000000000000000000000000000000000000000000000000000000000000000000000000000000000000000000000000000000000000000000000000000000000000000000000000000000000000000000
310
00000000000000000000000000000000000000000000000000000000000000000000000000F500000000000000000000000000000000000000000000000000000000000000000000000000000000000000000000000000000000F5000000000000000000000000000000000000000000000000000000000000000000000000
310
00000000000000000000000000000000000000000000000000000000000000000000000000000000000000000000000000000000000000000000000000000000000000000000000000000000000000000000000000000000000000000000000000000000000000000000000000000000000000000000000000000000000000
310
000000000000000000000000000000000000000000000000000000000000000000000000000000F500000000000000000000000000000000000000000000000000000000000000000000000000000000000000000000000000000000F500000000000000000000000000000000000000000000000000000000000000000000
310
00000000000000000000000000000000000000000000000000000000000000000000000000000000000000000000000000000000000000000000000000000000000000000000000000000000000000000000000000000000000000000000000000000000000000000000000000000000000000000000000000000000000000
310
0000000000000000000000000000000000000000000000000000000000000000000000000000000000F500000000000000000000000000000000000000000000000000000000000000000000000000000000000000F5F5F5F5F5F5F5F5F5F5F5F5F5F5F500F5F5F5F500000000000000000000000000000000000000000000
310
00000000000000000000000000000000000000000000000000000000000000000000000000000000000000000000000000000000000000000000000000000000000000000000000000000000000000000000000000000000000000000000000000000000000000000000000000000000000000000000000000000000000000
310
000000000000000000000000000000000000000000000000000000000000000000F5F5F5F500F5F5F5F5F5F5F5F5F5F5F5F5F5F5F500000000000000000000000000000000000000000000000000000000000000000000000000000000000000F5000000000000000000000000000000000000000000000000000000000000
310
00000000000000000000000000000000000000000000000000000000000000000000000000000000000000000000000000000000000000000000000000000000000000000000000000000000000000000000000000000000000000000000000000000000000000000000000000000000000000000000000000000000000000
310
000000000000000000000000000000000000000000000000000000000000000000000000000000000000000000F500000000000000000000000000000000000000000000000000000000000000000000000000000000000000000000000000000000F500000000000000000000000000000000000000000000000000000000
310
00000000000000000000000000000000000000000000000000000000000000000000000000000000000000000000000000000000000000000000000000000000000000000000000000000000000000000000000000000000000000000000000000000000000000000000000000000000000000000000000000000000000000
310
0000000000000000000000000000000000000000000000000000000000000000000000000000000000000000000000F500000000000000000000000000000000000000000000000000000000000000000000000000000000000000000000000000000000F50000000000000000000000000000000000000000000000000000
310
00000000000000000000000000000000000000000000000000000000000000000000000000000000000000000000000000000000000000000000000000000000000000000000000000000000000000000000000000000000000000000000000000000000000000000000000000000000000000000000000000000000000000
310
00000000000000000000000000000000000000000000000000000000000000000000000000000000000000000000000000F500000000000000000000000000000000000000000000000000000000000000000000000000000000000000000000000000000000F5000000000000000000000000000000000000000000000000
310
00000000000000000000000000000000000000000000000000000000000000000000000000000000000000000000000000000000000000000000000000000000000000000000000000000000000000000000000000000000000000000000000000000000000000000000000000000000000000000000000000000000000000
310
000000000000000000000000000000000000000000000000000000000000000000000000000000000000000000000000000000F500000000000000000000000000000000000000000000000000000000000000000000000000000000000000000000000000000000F500000000000000000000000000000000000000000000
310
00000000000000000000000000000000000000000000000000000000000000000000000000000000000000000000000000000000000000000000000000000000000000000000000000000000000000000000000000000000000000000000000000000000000000000000000000000000000000000000000000000000000000
310
0000000000000000000000000000000000000000000000000000000000000000000000000000000000000000000000000000000000F500000000000000000000000000000000000000000000000000000000000000000000000000000000000000000000000000000000F50000000000000000000000000000000000000000
310
00000000000000000000000000000000000000000000000000000000000000000000000000000000000000000000000000000000000000000000000000000000000000000000000000000000000000000000000000000000000000000000000000000000000000000000000000000000000000000000000000000000000000
310
00000000000000000000000000000000000000000000000000000000000000000000000000000000000000000000000000000000000000F500000000000000000000000000000000000000000000000000000000000000000000000000000000000000000000000000000000F5000000000000000000000000000000000000
310
00000000000000000000000000000000000000000000000000000000000000000000000000000000000000000000000000000000000000000000000000000000000000000000000000000000000000000000000000000000000000000000000000000000000000000000000000000000000000000000000000000000000000
310
000000000000000000000000000000000000000000000000000000000000000000000000000000000000000000000000000000000000000000F500000000000000000000000000000000000000000000000000000000000000000000000000000000000000000000000000000000F500000000000000000000000000000000
310
00000000000000000000000000000000000000000000000000000000000000000000000000000000000000000000000000000000000000000000000000000000000000000000000000000000000000000000000000000000000000000000000000000000000000000000000000000000000000000000000000000000000000
310
0000000000000000000000000000000000000000000000000000000000000000000000000000000000000000000000000000000000000000000000F500000000000000000000000000000000000000000000000000000000000000000000000000000000000000000000000000000000F50000000000000000000000000000
310
00000000000000000000000000000000000000000000000000000000000000000000000000000000000000000000000000000000000000000000000000000000000000000000000000000000000000000000000000000000000000000000000000000000000000000000000000000000000000000000000000000000000000
310
00000000000000000000000000000000000000000000000000000000000000000000000000000000000000000000000000000000000000000000000000F50000000000000000000000000000000000000000000000000000000000000000000000000000000000000000000000000000000000000000000000000000000000
310
00000000000000000000000000000000000000000000000000000000000000000000000000000000000000000000000000000000000000000000000000000000000000000000000000000000000000000000000000000000000000000000000000000000000000000000000000000000000000000000000000000000000000
310
000000000000000000000000000000000000000000000000000000000000000000000000000000000000000000000000DCDCDCDCDCDCDCDCDCDCDC0000000000000000000000000000000000000000000000000000000000000000000000000000000000000000000000000000000000000000000000000000000000000000
310
00000000000000000000000000000000000000000000000000000000000000000000000000000000000000000000000000000000000000000000000000000000000000000000000000000000000000000000000000000000000000000000000000000000000000000000000000000000000000000000000000000000000000
310
00000000000000000000000000000000000000000000000000000000000000000000000000000000000000000000000000000000000000000000000000000000000000000000000000000000000000000000000000000000000000000000000000000000000000000000000000000000000000000000000000DCDCDCDCDCDC
310
DCDCDCDCDCDCDCDCDCDCDCDCDCDCDCDCDCDCDCDCDCDCDCDCDCDCDCDCDCDCDCDCDCDCDCDCDCDCDCDCDCDCDCDCDCDCDCDCDCDCDCDCDCDCDCDCDCDCDCDCDCDCDCDCDCDCDCDCDCDCDCDCDCDCDCDCDCDCDCDCDCDCDCDCDCDCDCDCDCDCDCDCDCDCDCDCDCDCDCDCDCDCDCDCDCDCDCDCDCDCDCDCDCDCDCDCDCDCDCDCDCDCDCDCDCDCDC
310
DCDCDCDCDCDCDCDCDCDCDCDCDCDCDCDCDCDCDCDCDCDCDCDCDCDCDCDCDCDCDCDCDCDCDCDCDCDCDCDCDCDCDCDCDCDCDCDCDCDCDCDCDCDCDCDCDCDCDCDCDCDCDCDCDC00000000000000000000000000000000000000000000000000000000000000000000000000000000000000000000000000000000000000000000DCDCDCDC
310
DCDCDCDCDCDCDCDCDCDCDCDCDCDCDCDCDCDCDCDCDCDCDCDCDCDCDCDCDCDCDCDCDCDCDCDCDCDCDCDCDCDCDCDCDCDCDCDCDCDCDCDCDCDCDCDCDCDCDCDCDCDCDCDCDCDCDCDCDCDCDCDCDCDCDCDCDCDCDCDCDCDCDCDCDCDCDCDCDCDCDCDCDCDCDCDCDCDCDCDCDCDCDCDCDCDCDCDCDCDCDCDCDCDCDCDCDCDCDCDCDCDCDCDCDCDCDC
310
DCDCDCDCDCDCDCDCDCDCDCDCDCDCDCDCDCDCDCDCDCDCDCDCDCDCDCDCDCDCDCDCDCDCDCDCDCDCDCDCDCDCDCDCDCDCDCDCDCDCDCDCDCDCDCDCDCDCDCDCDCDCDCDCDCDCDC00000000000000000000000000000000000000000000000000000000000000000000000000000000000000000000000000000000000000000000DCDC
310
00DCDCDCDCDCDCDCDCDCDC000000000000000000000000000000000000DCDCDCDCDCDC0000000000000000000000000000000000000000000000000000000000000000000000000000DCDCDCDCDCDCDCDCDCDCDCDCDCDCDCDCDCDCDCDCDCDCDCDCDCDCDCDCDCDCDCDCDCDCDCDCDC0000000000DC0000000000000000000000
310
000000000000000000000000000000000000DC00000000000000000000000000000000000000000000000000000000DCDCDCDCDCDCDCDCDCDCDCDC0000000000000000DCDC00000000000000000000000000000000000000000000000000000000000000000000000000000000000000000000000000000000000000000000
310
DCDC00DCDCDCDCDCDCDCDCDCDCDC0000000000000000000000000000000000DCDCDCDCDCDCDCDCDCDCDCDCDCDCDCDCDCDCDCDCDCDCDCDCDCDCDCDCDCDCDCDCDCDCDCDCDCDCDCDCDCDCDCDCDC0000000000000000000000000000000000000000000000000000000000000000000000000000000000DCDCDCDCDCDCDCDCDCDC
310
00DCDCDCDCDCDCDCDCDCDCDCDCDCDCDCDCDCDCDCDCDCDCDCDCDCDCDCDCDCDCDCDCDCDCDCDCDCDCDCDCDC00DCDCDCDCDCDCDC00000000000000000000000000000000000000DCDC0000000000000000000000000000000000000000000000000000000000000000000000000000000000000000000000000000000000000000
310
0000DCDC00DCDCDCDCDCDCDCDCDCDC00DC00DCDCDCDCDCDCDCDCDCDC0000000000DCDCDCDCDCDC0000000000000000000000000000000000000000000000000000000000000000000000000000DC0000000000000000000000000000000000000000000000000000000000000000000000000000000000DCDCDCDCDCDCDCDC
310
DCDC0000000000000000000000000000000000000000DCDCDCDCDCDCDCDCDCDCDCDCDCDCDCDCDCDCDCDCDCDC00000000000000DC00000000000000000000000000000000000000DCDC000000000000000000000000000000000000000000000000000000000000000000000000000000000000000000000000000000000000
310
00000000DCDC00DCDCDCDCDCDCDCDCDCDC00DCDCDCDCDCDCDCDCDCDCDCDC0000000000DCDCDCDCDCDC0000000000000000000000000000000000000000000000000000000000000000000000000000DCDCDCDCDCDCDCDCDCDCDCDCDCDCDCDCDCDCDCDCDCDCDCDCDCDCDCDCDCDCDCDCDCDCDCDCDCDCDCDCDCDCDC0000000000
310
000000000000000000000000000000000000000000000000DC00000000000000000000000000000000000000000000000000000000DCDCDCDCDC00DCDCDCDCDCDCDCDCDCDCDCDCDCDCDCDC00000000000000000000000000000000000000000000000000000000000000000000000000000000000000000000000000000000
310
000000000000DCDC00000000000000000000000000000000DCDC0000000000000000000000DC00000000000000000000000000000000000000000000000000000000000000000000000000000000000000DCDCDCDCDCDCDCDCDCDCDCDCDCDCDCDCDCDCDCDCDCDCDCDCDCDCDCDCDCDCDCDCDCDCDCDCDCDCDCDCDC00DC000000
310
0000000000000000000000000000000000000000000000000000DC00000000000000000000000000000000000000000000000000000000DCDCDCDCDC000000000000000000000000000000DCDC0000000000000000000000000000000000000000000000000000000000000000000000000000000000000000000000000000
310
0000000000000000DCDCDCDCDCDCDCDCDC00DCDCDCDCDCDCDCDCDCDCDCDCDCDCDCDCDC00000000DCDCDCDCDCDCDCDCDCDCDCDCDCDCDCDCDCDCDCDCDCDCDCDCDCDCDCDCDCDCDCDCDCDCDCDCDCDCDCDCDCDCDCDCDCDCDCDCDCDCDCDCDCDCDCDCDCDCDCDCDCDCDCDCDCDCDCDCDCDCDCDCDCDCDCDCDCDCDCDCDCDCDCDCDC00DCDC
310
DCDCDCDCDCDCDCDCDCDCDCDCDCDCDCDCDC00DCDCDCDCDCDCDCDCDCDCDCDCDCDCDCDCDCDCDCDCDCDCDCDCDCDCDCDCDCDCDCDCDCDCDCDCDCDCDCDC00000000000000000000000000000000000000DCDC000000000000000000000000000000000000000000000000000000000000000000000000000000000000000000000000
310
00000000000000000000DCDCDCDCDCDCDCDCDC00DCDCDCDCDCDCDCDCDCDCDCDCDCDCDCDCDCDC000000DCDCDCDC00000000000000000000000000000000000000000000000000000000000000000000000000000000DC0000000000000000000000000000000000000000000000000000000000000000000000000000000000
310
DCDCDCDCDCDCDCDCDCDCDCDCDCDCDCDCDCDCDC0000000000000000000000DCDCDCDCDCDCDCDCDCDCDCDCDCDCDCDCDCDCDC00000000000000000000DCDCDCDCDC00DCDCDCDCDCDCDCDCDCDCDCDCDCDCDCDC00000000000000000000000000000000000000000000000000000000000000000000000000000000000000000000
310
000000000000000000000000DCDCDCDCDCDCDCDCDC00DCDCDCDCDCDCDCDCDCDCDCDCDCDCDCDCDCDC000000DCDCDCDC00000000000000000000000000000000000000000000000000000000000000000000000000000000DC000000000000000000000000000000000000000000000000000000000000000000000000000000
310
0000DC0000000000000000000000000000000000000000000000000000000000DC00000000000000000000000000000000000000000000000000000000DCDCDCDCDC000000000000000000000000000000DCDC0000000000000000000000000000000000000000000000000000000000000000000000000000000000000000
310
0000000000000000000000000000DCDCDCDCDCDCDCDC0000DCDCDCDCDCDCDCDCDCDCDCDCDCDCDCDCDCDC000000DC00000000000000000000000000000000000000000000000000000000000000000000000000000000000000DCDCDCDCDCDCDCDCDCDCDCDCDCDCDCDCDCDCDCDCDCDCDCDCDCDCDCDCDCDCDCDCDCDCDCDCDCDC
310
DCDCDCDCDC0000000000000000000000000000000000000000000000000000000000DC00000000000000000000000000000000000000000000000000000000DC00000000000000000000000000000000000000DCDC000000000000000000000000000000000000000000000000000000000000000000000000000000000000
310
00000000000000000000000000000000DCDCDCDCDCDCDCDCDC00DCDCDCDCDCDCDCDCDCDCDC00DCDCDCDC00DC000000DCDCDCDCDCDCDCDCDCDCDCDCDCDCDCDCDCDCDCDCDCDCDCDCDCDCDCDCDCDCDCDCDCDCDCDCDCDCDCDCDCDCDCDCDC000000DCDCDCDCDCDCDCDCDCDCDCDCDCDCDC0000000000DCDCDCDCDCDCDCDCDCDC0000
310
000000000000DCDCDCDCDCDCDCDCDCDCDCDCDCDCDCDCDC00DCDCDCDCDCDCDCDCDCDCDCDCDCDCDCDCDCDCDCDCDCDCDCDCDCDCDCDCDCDCDC0000DCDCDCDCDCDCDCDCDCDCDCDCDCDCDCDCDCDCDC000000DC000000DC00DCDC00000000000000000000000000000000000000000000000000000000000000000000000000000000
310
000000000000000000000000000000000000DCDCDCDCDCDCDCDCDC00DCDCDCDCDC00000000000000000000000000000000DCDCDCDCDC000000000000000000000000000000000000000000000000000000000000000000000000000000DC000000000000DCDCDCDCDCDCDCDC000000000000000000DCDCDCDCDCDCDCDCDCDC
310
0000000000000000DCDCDCDCDCDCDCDCDCDCDCDCDCDCDCDCDC00000000000000000000000000DCDCDCDCDCDCDCDCDCDCDCDCDCDCDCDCDCDCDC00000000000000000000DCDCDCDCDCDCDCDCDCDCDC000000DCDCDCDCDCDCDCDC0000000000000000000000000000000000000000000000000000000000000000000000000000
310
0000000000000000000000000000000000000000DCDC00DCDCDCDCDCDC00000000000000000000000000000000000000000000DC00000000000000000000000000000000000000000000000000000000000000000000000000000000000000DC000000000000DCDCDCDCDCDCDCDC000000000000000000DC00000000000000
310
00000000000000000000DC0000000000000000000000000000000000000000000000000000000000DC00000000000000000000000000000000000000000000000000000000DCDCDCDCDCDCDCDCDCDCDC0000DCDCDC0000DCDCDCDC000000000000000000000000000000000000000000000000000000000000000000000000
310
00000000000000000000000000000000000000000000DCDCDCDCDCDCDCDCDCDCDCDCDCDCDCDCDCDCDCDCDCDCDCDCDCDCDCDCDCDCDCDCDCDCDCDCDCDCDCDCDCDCDCDCDCDCDCDCDCDCDCDCDCDCDCDCDCDCDCDCDCDCDCDCDCDCDCDCDCDCDCDCDCDCDCDCDCDCDCDCDCDCDCDCDCDCDCDCDCDCDCDCDCDCDCDCDCDCDCDCDCDCDCDCDC
310
DCDCDCDCDCDCDCDCDCDCDCDCDCDCDCDCDCDCDCDCDCDCDCDCDCDCDCDCDCDCDCDCDCDCDCDCDCDCDCDCDCDCDCDCDCDCDCDCDCDCDCDCDCDCDCDCDCDCDCDCDCDCDCDCDCDCDCDCDCDCDCDCDCDCDCDCDCDCDCDCDCDCDCDCDCDCDCDCDCDCDCDCDC00000000000000000000000000000000000000000000000000000000000000000000
310
000000000000000000000000000000000000000000000000DCDC0000000000000000000000000000000000000000000000000000000000000000000000000000000000000000000000000000000000000000000000000000000000000000000000000000000000000000000000000000000000000000000000000000000000
310
000000000000000000000000000000000000000000000000000000000000000000000000000000000000000000000000000000000000000000000000000000000000000000000000000000000000000000000000000000000000000000DCDC0000000000000000000000000000000000000000000000000000000000000000
310
0000000000000000000000000000000000000000000000000000DCDC000000000000000000000000000000000000000000000000000000000000000000000000000000000000000000000000000000000000000000000000000000000000000000000000000000000000000000000000000000000000000000000000000000
310
0000000000000000000000000000000000000000000000000000000000000000000000000000000000000000000000000000000000000000000000000000000000000000000000000000000000000000000000000000000000000000000000DCDC000000000000000000000000000000000000000000000000000000000000
310
00000000000000000000000000000000000000000000000000000000DCDC00000000000000000000000000000000000000000000000000000000000000000000000000000000000000000000000000000000000000000000000000000000000000000000000000000000000000000000000000000000000000000000000000
310
00000000000000000000000000000000000000000000000000000000000000000000000000000000000000000000000000000000000000000000000000000000000000000000000000000000DCDCDCDCDCDCDCDC00DCDCDCDC0000000000000000DCDC00000000000000000000000000000000000000000000000000000000
310
000000000000000000000000000000000000000000000000000000000000DCDC0000000000000000000000DCDCDCDCDCDCDCDCDCDCDCDCDCDCDCDCDCDCDCDCDCDCDCDCDCDC00000000000000000000000000000000000000000000000000000000000000000000000000000000000000000000000000000000000000000000
310
00000000000000000000000000000000000000000000000000000000000000000000000000000000000000000000000000000000000000000000000000000000000000000000000000000000DCDCDCDC0000000000DC000000DCDC0000000000000000DCDC0000000000000000000000000000000000000000000000000000
310
0000000000000000000000000000000000000000000000000000000000000000DCDC0000000000000000DCDCDCDCDCDCDCDCDCDCDCDCDCDCDCDCDCDCDCDCDCDCDCDCDCDCDCDCDC00000000000000000000000000000000000000000000000000000000000000000000000000000000000000000000DCDCDCDCDCDC00000000
310
000000000000000000000000000000000000000000000000000000000000000000000000000000000000000000000000000000000000000000000000000000000000000000000000000000000000DCDCDCDC0000000000DC000000DCDC0000000000000000DCDC000000000000000000000000000000000000000000000000
310
00000000000000000000000000000000000000000000000000000000000000000000DCDC0000000000000000DC00DCDCDCDCDCDCDCDCDCDCDCDCDCDCDCDCDCDCDCDCDCDCDCDCDCDC0000000000000000000000000000000000000000000000000000000000000000000000000000000000000000000000DCDCDCDCDCDC0000
310
0000000000000000000000000000000000000000000000000000000000000000000000000000000000000000000000000000000000000000000000000000000000000000000000000000000000000000DCDCDCDC0000000000DC000000DC000000000000000000DCDC00000000000000000000000000000000000000000000
310
000000000000000000000000000000000000000000000000000000000000000000000000DCDC0000000000000000DCDCDCDCDCDCDCDCDCDCDCDCDCDCDCDCDCDCDCDCDCDCDCDCDCDCDCDC0000000000000000000000000000000000000000000000000000000000000000000000000000000000000000000000DCDCDCDCDCDC
310
DCDC0000000000000000000000000000000000000000000000000000000000000000000000000000000000000000000000000000000000000000000000000000000000000000000000000000000000000000DCDCDCDC0000000000DC000000DC000000000000000000DCDC0000000000000000000000000000000000000000
310
0000000000000000000000000000000000000000000000000000000000000000000000000000DCDC0000000000000000000000000000000000000000000000000000000000000000000000000000000000000000000000000000000000000000000000000000000000000000000000000000000000000000000000DCDCDCDC
310
DCDCDCDC0000000000000000000000000000000000000000000000000000000000000000000000000000000000000000000000000000000000000000000000000000000000000000000000000000000000000000DCDCDCDC0000000000DC000000DC000000000000000000DCDC000000000000000000000000000000000000
310
00000000000000000000000000000000000000000000000000000000000000000000000000000000DCDC0000000000000000000000DCDCDCDCDCDCDCDCDCDCDCDCDCDCDCDCDCDCDCDCDCDCDCDCDCDC00000000000000000000000000000000DCDCDCDCDCDCDCDCDCDCDCDCDCDCDCDC0000000000000000000000000000DCDC
310
DCDC000000000000000000000000000000000000000000000000000000000000000000000000000000000000000000000000000000000000000000000000000000000000000000000000000000000000000000000000DCDCDCDC0000000000DC000000DC000000000000000000DCDC00000000000000000000000000000000
310
000000000000000000000000000000000000000000000000000000000000000000000000000000000000DCDC0000000000000000DCDCDCDCDCDCDCDCDCDCDCDCDCDCDCDCDCDCDCDCDCDCDCDCDCDCDCDCDC00000000000000000000000000000000DC00DCDCDCDCDCDCDCDCDCDCDCDCDCDC0000000000000000000000DCDCDC
310
DCDCDCDC000000000000000000000000000000000000000000000000000000000000000000000000000000000000000000000000000000000000000000000000000000000000000000000000000000000000000000000000DCDCDCDC0000000000DC000000DC000000000000000000DCDC0000000000000000000000000000
310
0000000000000000000000000000000000000000000000000000000000000000000000000000000000000000DCDC0000000000000000DC00DCDCDCDCDCDCDCDCDCDCDCDCDCDCDCDCDCDCDCDCDCDCDC0000000000000000000000000000000000000000DCDCDC000000000000000000000000000000000000000000000000DC
310
000000000000000000000000000000000000000000000000000000000000000000000000000000000000000000000000000000000000000000000000000000000000000000000000000000000000000000000000000000000000DCDCDCDC0000000000DC000000DC000000000000000000DCDC000000000000000000000000
310
00000000000000000000000000000000000000000000000000000000000000000000000000000000000000000000DCDC0000000000000000DCDCDCDCDCDCDCDCDCDCDCDCDCDCDCDCDCDCDCDCDCDCDCDCDC0000000000000000000000000000000000000000DCDCDCDCDCDCDCDCDCDCDCDCDCDCDC0000000000000000000000
310
DC00000000000000000000000000000000000000000000000000000000000000000000000000000000000000000000000000000000000000000000000000000000000000000000000000000000000000000000000000000000000000DCDCDCDC0000000000DC000000DC000000000000000000DCDC00000000000000000000
310
000000000000000000000000000000000000000000000000000000000000000000000000000000000000000000000000DCDC0000000000000000DCDCDCDCDCDCDCDCDCDCDCDCDCDCDCDCDCDCDCDCDCDCDCDCDCDCDCDCDCDCDCDC00000000000000000000000000DC00DCDCDCDCDCDCDCDCDCDCDCDCDC000000000000000000
310
0000DC00000000000000000000000000000000000000000000000000000000000000000000000000000000000000000000000000000000000000000000000000000000000000000000000000000000000000000000000000000000000000DCDCDCDC0000000000DC000000DC000000000000000000DCDC0000000000000000
310
0000000000000000000000000000000000000000000000000000000000000000000000000000000000000000000000000000DCDC0000000000000000DCDCDCDCDCDCDCDCDCDCDCDCDCDCDCDCDCDCDCDCDCDCDCDCDCDCDCDCDCDCDCDC00000000000000000000000000DCDCDC00000000000000000000000000000000000000
310
00000000DC0000000000000000000000000000000000000000DCDCDCDCDCDCDCDC000000000000000000000000000000000000000000000000000000000000000000000000000000000000000000000000000000000000000000000000000000DCDCDCDC0000000000DC000000DC000000000000000000DCDC000000000000
310
00000000000000000000000000000000000000000000000000000000000000000000000000000000000000000000000000000000DCDC0000000000000000000000000000000000000000000000000000000000000000000000000000000000000000000000000000000000DCDCDCDCDCDCDCDCDCDCDCDCDCDCDC0000000000
310
000000000000DC0000000000000000000000000000000000000000DC00DCDCDCDCDCDC00000000000000000000000000000000000000000000000000000000000000000000000000DCDCDCDCDCDCDCDCDC0000000000000000000000000000000000DCDCDCDC0000000000DC000000DC000000000000000000DCDC00000000
310
000000000000000000000000000000000000000000000000000000000000000000000000000000000000000000000000000000000000DCDC0000000000000000DCDCDCDCDCDCDCDCDCDCDCDCDCDCDCDCDCDCDCDCDCDCDCDCDC0000000000000000000000000000000000000000DCDCDCDCDCDCDCDCDCDCDCDCDCDCDC000000
310
00000000000000DC000000000000000000000000000000000000000000DCDCDCDCDCDCDCDCDCDCDCDCDC0000000000000000000000000000000000000000000000000000000000DCDCDCDCDCDCDCDCDCDCDCDC0000000000000000000000000000000000DCDCDCDC0000000000DC000000DC000000000000000000DCDC0000
310
0000000000000000000000000000000000000000000000000000000000000000000000000000000000000000000000000000000000000000DCDC0000000000000000DCDCDCDCDCDCDCDCDCDCDCDCDCDCDCDCDCDCDCDCDCDCDCDC00000000DCDCDC0000000000000000000000000000DCDCDCDCDCDCDCDCDCDCDCDCDCDCDC00
310
000000000000000000DC000000000000000000000000000000000000000000DCDCDCDCDCDCDCDCDCDCDCDCDC0000000000000000000000000000000000000000000000000000000000DC00DCDCDCDCDCDCDC0000000000000000000000000000000000000000DCDCDCDC0000000000DC000000DC000000000000000000DCDC
310
00000000000000000000000000000000000000000000000000000000000000000000000000000000000000000000000000000000000000000000DCDC0000000000000000000000000000000000000000000000000000000000000000000000000000DC0000000000000000000000000000DC00DCDCDCDCDCDCDCDCDCDCDCDC
310
DC00000000000000000000DC0000DCDCDCDCDCDCDCDC0000000000000000000000DCDCDC000000000000000000000000000000000000000000000000000000000000000000000000000000DCDCDCDCDCDCDCDCDC0000000000000000000000000000000000000000DCDCDCDC0000000000DC000000DC000000000000000000
310
DCDC00000000000000000000000000000000000000000000000000000000000000000000000000000000000000000000000000000000000000000000DCDC00000000000000000000000000DC00000000000000000000000000000000000000000000000000DC00000000000000000000000000DCDCDC000000000000000000
310
00000000000000000000000000DC0000DCDC00000000DCDC0000000000000000000000DCDCDCDCDCDCDCDCDCDCDCDCDCDCDC0000000000000000000000000000000000000000000000000000000000000000000000000000000000000000000000000000000000000000DCDCDCDC0000000000DC000000DC00000000000000
310
0000DCDC00000000000000000000000000000000000000000000000000000000000000000000000000000000000000000000000000000000000000000000DCDC000000000000000000000000DCDC00000000000000000000000000000000000000000000000000DC00000000000000000000000000DCDCDCDCDCDCDCDCDCDC
310
DCDCDCDCDCDCDCDCDC0000DC0000DC000000DCDC000000DCDCDC0000000000000000000000DC00DCDCDCDCDCDCDCDCDCDCDCDCDC000000000000000000000000000000000000000000000000000000000000DCDCDCDCDCDCDCDCDC0000000000000000000000000000000000DCDCDCDC0000000000DC000000DC0000000000
310
00000000DCDC00000000000000000000000000000000000000000000000000000000000000000000000000000000000000000000000000000000000000000000DCDC000000000000000000000000DCDC00000000000000000000000000000000000000000000000000DC0000000000000000000000DCDCDCDCDCDCDCDCDCDC
310
DCDCDCDCDCDCDCDCDCDC000000DCDC00DC000000DCDC00000000DCDC0000000000000000000000DCDCDC000000000000000000000000000000000000000000000000000000000000000000000000000000DCDCDCDCDCDCDCDCDCDCDCDCDCDC000000000000000000000000000000DCDCDCDC0000000000DC000000DC000000
310
000000000000DCDC00000000000000000000000000000000000000000000000000000000000000000000000000000000000000000000000000000000000000000000DCDC000000000000000000000000DCDC0000000000000000000000000000000000000000000000000000DC00000000000000000000DC00000000000000
310
000000000000000000000000000000DCDC00DC000000DCDC00000000DCDC0000000000000000000000DCDCDCDCDCDCDCDCDCDCDCDCDCDC00000000000000000000000000000000000000000000000000000000DCDCDCDCDCDCDCDCDCDCDCDCDCDC000000000000000000000000000000DCDCDCDC0000000000DC000000DC00
310
0000000000000000DCDC00000000000000000000000000000000000000000000000000000000000000000000000000000000000000000000000000000000000000000000DCDC000000000000000000000000DCDC000000000000000000000000000000000000000000000000DCDCDCDCDCDCDCDCDCDC0000DC000000000000
310
0000000000000000000000000000000000DCDC00DC00DCDCDCDC00000000DCDCDC00000000000000000000DC00DCDCDCDCDCDCDCDCDCDCDCDC000000000000000000000000000000000000000000000000000000000000000000000000000000000000000000000000000000000000000000DCDCDCDC0000000000DC000000
310
DC000000000000000000DCDC00000000000000000000000000000000000000000000000000000000000000000000000000000000000000000000000000000000000000000000DCDC000000000000000000000000DCDC000000000000000000000000000000000000000000000000DC0000DC0000000000DC0000DC00000000
310
00000000000000000000000000000000000000DCDCDC0000DCDCDCDC00000000DCDCDCDC0000000000000000DCDCDCDCDCDCDCDCDCDCDCDCDCDCDCDCDCDCDCDC0000000000000000000000000000000000000000000000DCDCDCDCDCDCDCDCDCDCDCDCDCDCDCDCDC000000000000000000000000DCDCDCDC0000000000DC00
310
0000DC000000000000000000DCDC00000000000000000000000000000000000000000000000000000000000000000000000000000000000000000000000000000000000000000000DCDC000000000000000000000000DCDC000000000000000000000000000000000000000000000000DC0000000000000000DC00DC000000
310
000000000000000000000000000000000000000000DCDCDC0000DCDCDCDC00000000DCDC0000DCDC000000000000DCDCDCDCDCDCDCDCDCDCDCDCDCDCDCDCDCDCDCDC0000000000000000000000000000000000000000000000DCDCDCDCDCDCDCDCDCDCDCDCDCDCDCDC0000DCDC000000000000000000DCDCDCDC0000000000
310
DC000000DC000000000000000000DCDC00000000000000000000000000000000000000000000000000000000000000000000000000000000000000000000000000000000000000000000DCDC0000000000000000000000DCDCDC0000DC000000000000000000000000000000000000000000DC000000DCDC000000DC00DC00
310
00000000000000000000000000000000000000DCDC0000DCDCDC0000DC00DCDCDCDCDCDCDCDC00000000DC0000000000DCDCDCDCDCDCDCDCDCDCDCDCDCDCDCDCDCDCDCDCDCDCDCDCDCDC00000000000000000000000000000000000000000000000000000000000000000000000000DCDC00000000000000DCDCDCDC000000
310
0000DC000000DC000000000000000000DCDC00000000000000000000000000000000000000000000000000000000000000000000000000000000000000000000000000000000000000000000DCDC0000000000000000000000DCDCDCDCDCDC000000000000DCDCDCDCDCDCDCDCDCDCDCDCDCDCDCDCDCDCDCDCDCDCDCDCDCDC
310
DCDCDCDCDCDCDCDCDCDCDCDCDCDCDC000000000000DCDCDCDC00DCDC0000DCDC00000000000000000000000000DC00000000DCDCDCDCDCDCDCDCDCDCDCDCDCDCDCDCDCDCDCDCDCDCDCDCDCDC000000000000000000000000000000000000000000000000000000000000000000000000000000DCDC0000000000DCDCDCDC00
310
00000000DC000000DC000000000000000000DCDC00000000000000000000000000000000000000000000000000000000000000000000000000000000000000000000000000000000000000000000DCDCDCDCDCDCDCDCDCDCDCDCDCDCDCDCDCDCDCDCDCDCDCDCDCDCDCDCDCDCDCDCDCDCDCDCDCDCDCDCDCDCDCDCDCDCDCDCDC
310
DCDCDCDCDCDCDCDCDCDCDCDCDCDCDCDCDCDCDCDCDCDCDCDCDCDCDCDCDCDCDCDCDCDCDCDCDCDCDCDCDCDC000000000000DC000000DCDCDCDCDCDCDCDCDCDCDCDC00000000000000000000000000000000000000000000000000000000000000000000000000000000000000000000000000000000000000DCDC000000DCDCDC
310
DC0000000000DC000000DC000000000000000000DCDC00000000000000000000000000000000000000000000000000000000000000000000000000000000000000000000000000000000000000000000DCDC0000000000000000000000DCDCDC0000DC00DC00000000DCDCDCDC000000000000000000000000000000DCDCDC
310
DCDC000000000000000000000000000000DCDC000000000000DCDC00DC00DCDC0000DCDCDC0000000000000000000000000000DCDCDCDCDCDCDCDCDCDCDCDCDCDC00000000000000000000000000000000000000000000000000000000000000000000000000000000000000000000000000000000000000000000DCDC00DC
310
DCDCDC0000000000DC000000DC000000000000000000DCDC00000000000000000000000000000000000000000000000000000000000000000000000000000000000000000000000000000000000000000000DCDC0000000000000000000000DCDCDCDCDCDC0000DC000000DCDCDCDCDCDCDCDCDCDCDCDCDCDCDCDCDCDCDCDC
310
DCDCDCDCDCDCDCDCDCDCDCDCDCDCDCDCDCDCDCDCDC000000000000DCDCDCDCDCDCDC0000000000DC000000000000000000000000000000000000000000000000000000000000000000000000000000000000000000000000000000000000000000000000000000000000000000000000000000000000000000000000000000
310
DCDCDCDCDC0000000000DC000000DC000000000000000000DCDC00000000000000000000000000000000000000000000000000000000000000000000000000000000000000000000000000000000000000000000DCDC000000000000000000000000DCDC000000000000DC0000000000000000000000000000000000DC0000
310
00DCDC000000DC0000000000000000000000000000000000000000000000DCDC00DCDC000000000000DC00000000000000000000000000000000000000000000000000000000000000000000000000000000000000000000000000000000000000000000000000000000000000000000000000000000000000000000000000
310
000000DCDCDCDC0000000000DC000000DC000000000000000000DCDC00000000000000000000000000000000000000000000000000000000000000000000000000000000000000000000000000000000000000000000DCDC00000000000000000000000000DC000000000000DC0000000000000000000000000000000000DC
310
000000DCDC000000DC0000000000000000000000000000000000000000000000DC0000DC0000000000000000DC00000000000000000000000000000000000000000000000000000000000000000000000000000000000000000000000000000000000000000000000000000000000000000000000000000000000000000000
310
0000000000DCDCDCDC0000000000DC000000DC000000000000000000DCDC00000000000000000000000000000000000000000000000000000000000000000000000000000000000000000000000000000000000000000000DCDC0000000000DCDCDCDCDCDCDCDCDC00000000000000DC000000000000000000000000000000
310
00DCDCDCDCDCDCDCDCDCDC00000000000000000000000000000000000000000000DC000000DCDCDCDCDCDCDCDCDCDC0000000000000000000000000000000000000000000000000000000000000000000000000000000000000000000000000000000000000000000000000000000000000000000000000000000000000000
310
00000000000000DCDCDCDC0000000000DC000000DC000000000000000000DCDC00000000000000000000000000000000000000000000000000000000000000000000000000000000000000000000000000000000000000000000DCDC000000000000000000000000000000000000000000DC00000000000000000000000000
310
0000000000000000DC0000000000000000000000000000000000000000000000000000DC00000000000000000000000000DC0000000000000000000000000000000000000000000000000000000000000000000000000000000000000000000000000000000000000000000000000000000000000000000000000000000000
310
000000000000000000DCDCDCDC0000000000DC000000DC000000000000000000DCDC00000000000000000000000000000000000000000000000000000000000000000000000000000000000000000000000000000000000000000000DCDC00000000000000000000000000000000000000000000DC00DCDCDCDCDCDCDCDCDC
310
DCDCDCDC00000000000000DC000000000000000000DCDCDCDCDCDCDCDCDCDCDCDCDC0000DC0000000000000000000000000000DC000000000000000000000000000000000000000000000000000000000000000000000000000000000000000000000000000000000000000000000000000000000000000000000000000000
310
0000000000000000000000DCDCDCDC0000000000DC0000DCDC000000000000000000DCDC00000000000000000000000000000000000000000000000000000000000000000000000000000000000000000000000000000000000000000000DCDC00000000000000000000000000000000000000000000DCDCDCDCDCDCDCDCDC
310
DCDCDCDCDCDC00000000000000DC000000000000000000DCDCDCDCDCDCDCDCDCDCDCDCDC00DCDC000000000000000000000000000000DC00DCDCDCDCDCDCDCDCDCDCDCDCDCDCDCDCDCDCDCDCDCDCDCDCDCDCDCDCDCDCDCDCDCDCDC000000000000000000000000000000000000000000000000000000000000000000000000
310
00000000000000000000000000DCDCDCDC0000000000DC0000DCDC000000000000000000DCDC00000000000000000000000000000000000000000000000000000000000000000000000000000000000000000000000000000000000000000000DCDC0000000000000000000000000000000000000000000000000000000000
310
000000000000000000000000000000DC00000000000000000000000000000000000000000000000000000000000000000000000000000000DCDCDCDCDCDCDCDCDCDCDCDCDCDCDCDCDCDCDCDCDCDCDCDCDCDCDCDCDCDCDCDCDCDCDCDCDC00000000000000000000000000000000000000000000000000000000000000000000
310
0000000000000000000000000000DCDCDCDCDC0000000000DC0000DCDC000000000000000000DCDC00000000000000000000000000000000000000000000000000000000000000000000000000000000000000000000000000000000000000000000DCDC000000000000000000000000000000000000000000000000000000
310
0000000000000000000000000000000000DC00000000000000000000000000000000000000000000000000000000000000000000000000000000000000000000000000000000000000000000000000000000000000000000000000000000000000000000000000000000000000000000000000000000000000000000000000
310
00000000000000000000000000000000DCDCDCDCDC0000000000DC0000DCDCDCDC00000000000000DCDC00000000000000000000000000000000000000000000000000000000000000000000000000000000000000000000000000000000000000000000DCDC00000000000000000000000000000000000000000000000000
310
0000000000000000000000000000000000000000DC00000000000000000000000000000000000000000000000000000000000000000000000000000000000000000000000000000000000000000000000000000000000000000000000000000000000000000000000000000000000000000000000000000000000000000000
310
000000000000000000000000000000000000DCDCDCDCDC0000000000DC0000DCDCDCDC00000000000000DCDC00000000000000000000000000000000000000000000000000000000000000000000000000000000000000000000000000000000000000000000DCDC0000000000000000000000000000000000000000000000
310
00000000000000000000000000000000000000000000DC00DCDCDCDCDCDCDCDCDCDCDCDCDCDCDCDCDCDCDCDCDCDCDCDCDCDC0000000000000000000000000000000000000000000000000000000000000000000000000000000000000000000000000000000000000000000000000000000000000000000000000000000000
310
0000000000000000000000000000000000000000DCDCDCDCDC0000000000DC0000DCDCDCDC00000000000000DCDC00000000000000000000000000000000000000000000000000000000000000000000000000000000000000000000000000000000000000000000DCDC000000000000000000000000000000000000000000
310
000000000000000000000000000000000000000000000000DCDCDCDCDCDCDCDCDCDCDCDCDCDCDCDCDCDCDCDCDCDCDCDCDCDCDCDC000000000000000000000000000000000000000000000000000000000000000000000000000000000000000000000000000000000000000000000000000000000000000000000000000000
310
00000000000000000000000000000000000000000000DCDCDCDCDC0000000000DC0000DCDCDCDC00000000000000DCDC00000000000000000000000000000000000000000000000000000000000000000000000000000000000000000000000000000000000000000000DCDC00000000000000000000000000000000000000
310
00000000000000000000000000000000000000000000000000000000000000000000000000000000000000000000000000000000000000000000000000000000000000000000000000000000000000000000000000000000000000000000000000000000000000000000000000000000000000000000000000000000000000
310
000000000000000000000000000000000000000000000000DCDCDCDCDC0000000000DC0000DCDCDCDC00000000000000DCDC00000000000000000000000000000000000000000000000000000000000000000000000000000000000000000000000000000000000000000000DCDC0000000000000000000000000000000000
310
00000000000000000000000000000000000000000000000000000000000000000000000000000000000000000000000000000000000000000000000000000000000000000000000000000000000000000000000000000000000000000000000000000000000000000000000000000000000000000000000000000000000000
310
0000000000000000000000000000000000000000000000000000DCDCDCDCDC0000000000DC0000DCDCDCDC00000000000000DCDC00000000000000000000000000000000000000000000000000000000000000000000000000000000000000000000000000000000000000000000DCDC000000000000000000000000000000
310
00000000000000000000000000000000000000000000000000000000000000000000000000000000000000000000000000000000000000000000000000000000000000000000000000000000000000000000000000000000000000000000000000000000000000000000000000000000000000000000000000000000000000
310
00000000000000000000000000000000000000000000000000000000DCDCDCDCDC0000000000DC0000DCDCDCDC00000000000000DCDC00000000000000000000000000000000000000000000000000000000000000000000000000000000000000000000000000000000000000000000DCDC00000000000000000000000000
310
00000000000000000000000000000000000000000000000000000000000000000000000000000000000000000000000000000000000000000000000000000000000000000000000000000000000000000000000000000000000000000000000000000000000000000000000000000000000000000000000000000000000000
310
000000000000000000000000000000000000000000000000000000000000DCDCDCDCDC0000000000DC0000DCDCDCDC00000000000000DCDC00000000000000000000000000000000000000000000000000000000000000000000000000000000000000000000000000000000000000000000DCDC000000DCDCDCDCDCDCDCDC
310
DCDCDCDCDCDCDCDCDCDCDCDCDCDCDCDCDCDCDCDCDCDCDCDCDCDCDCDCDCDCDCDCDCDC000000000000000000000000000000000000000000000000000000000000000000000000000000000000000000000000000000000000000000000000000000000000000000000000000000000000000000000000000000000000000000
310
0000000000000000000000000000000000000000000000000000000000000000DCDCDCDCDC0000000000DC0000DCDCDCDC00000000000000DCDC00000000000000000000000000000000000000000000000000000000000000000000000000000000000000000000000000000000000000000000DCDC000000DCDCDCDCDCDC
310
DCDCDCDCDCDCDCDCDCDCDCDCDCDCDCDCDCDCDCDCDCDCDCDCDCDCDCDCDCDCDCDCDCDCDCDC00000000000000000000000000000000000000000000000000000000000000000000000000000000000000000000000000000000000000000000000000000000000000000000000000000000000000000000000000000000000000
310
00000000000000000000000000000000000000000000000000000000000000000000DCDCDCDCDC0000000000DC0000DCDCDCDC00000000000000DCDC00000000000000000000000000000000000000000000000000000000000000000000000000000000000000000000000000000000000000000000DCDC000000DCDCDCDC
310
DCDCDCDCDCDCDCDCDCDCDCDCDCDCDCDCDCDCDCDCDCDCDCDCDCDCDCDCDCDCDCDCDCDCDCDCDCDCDCDCDCDCDCDCDCDCDCDCDCDC0000000000000000000000000000000000000000000000000000000000000000000000000000000000000000000000000000000000000000000000000000000000000000000000000000000000
310
000000000000000000000000000000000000000000000000000000000000000000000000DCDCDCDCDC0000000000DC0000DCDCDCDC00000000000000DCDC00000000000000000000000000000000000000000000000000000000000000000000000000000000000000000000000000000000000000000000DCDC000000DCDC
310
DCDCDCDCDCDCDCDCDCDCDCDCDCDCDCDCDCDCDCDCDCDCDCDCDCDCDCDCDCDCDCDCDCDCDCDCDCDCDCDCDCDCDCDCDCDCDCDCDCDCDCDC000000000000000000000000000000000000000000000000000000000000000000000000000000000000000000000000000000000000000000000000000000000000000000000000000000
310
0000000000000000000000000000000000000000000000000000000000000000000000000000DCDCDCDCDC0000000000DC0000DCDCDCDC00000000000000DCDC00000000000000000000000000000000000000000000000000000000000000000000000000000000000000000000000000000000000000000000DCDC000000
310
DCDCDCDCDCDCDCDCDCDCDCDCDCDCDCDCDCDCDCDCDCDCDCDCDCDCDCDCDCDCDCDCDCDCDCDCDCDCDCDCDCDCDCDCDCDCDCDCDCDCDCDCDCDCDCDCDC00000000000000000000000000000000000000000000000000000000000000000000000000000000000000000000000000000000000000000000000000000000000000000000
310
00000000000000000000000000000000000000000000000000000000000000000000000000000000DCDCDCDCDC0000000000DC0000DCDCDCDC00000000000000DCDC00000000000000000000000000000000000000000000000000000000000000000000000000000000000000000000000000000000000000000000DCDC00
310
0000DCDCDCDCDCDCDCDCDCDCDCDCDCDCDCDCDCDCDCDCDCDCDCDCDCDCDCDCDCDCDCDCDCDCDCDCDCDCDCDCDCDCDCDCDCDCDCDCDCDCDCDCDCDCDCDCDC0000000000000000000000000000000000000000000000000000000000000000000000000000000000000000000000000000000000000000000000000000000000000000
310
000000000000000000000000000000000000000000000000000000000000000000000000000000000000DCDCDCDCDC0000000000DC0000DCDCDCDC00000000000000DCDC00000000000000000000000000000000000000000000000000000000000000000000000000000000000000000000000000000000000000000000DC
310
DC000000DCDCDCDCDCDCDCDCDCDCDCDCDCDCDCDCDCDCDCDCDCDCDCDCDCDCDCDCDCDCDCDCDCDCDCDCDCDCDCDCDCDCDCDCDCDCDCDCDCDCDCDCDCDCDCDC00000000000000000000000000000000000000000000000000000000000000000000000000000000000000000000000000000000000000000000000000000000000000
310
0000000000000000000000000000000000000000000000000000000000000000000000000000000000000000DCDCDCDCDC0000000000DC0000DCDCDCDC00000000000000DCDC000000000000000000000000000000000000000000000000000000000000000000000000000000000000000000000000000000000000000000
310
00DCDC000000DCDCDCDCDCDCDCDCDCDCDCDCDCDCDCDCDCDCDCDCDCDCDCDCDCDCDCDCDCDCDCDCDCDCDCDCDCDCDCDCDCDCDCDCDCDCDCDCDCDCDCDCDCDCDCDC0000000000000000000000000000000000000000000000000000000000000000000000000000000000000000000000000000000000000000000000000000000000
310
00000000000000000000000000000000000000000000000000000000000000000000000000000000000000000000DCDCDCDCDC0000000000DC0000DCDCDCDC00000000000000DCDC00000000000000000000000000000000000000000000000000000000000000000000000000000000000000000000000000000000000000
310
000000DCDC0000000000000000000000000000000000000000000000000000000000000000000000000000000000000000000000000000000000000000000000000000000000000000000000000000000000000000000000000000000000000000000000000000000000000000000000000000000000000000000000000000
310
000000000000000000000000000000000000000000000000000000000000000000000000000000000000000000000000DCDCDCDCDC0000000000DC0000DCDCDCDC00000000000000DCDC0000000000000000000000000000000000000000000000000000000000000000000000000000000000000000000000000000000000
310
0000000000DCDC00DCDCDCDCDCDCDC00000000000000000000000000000000000000000000000000000000000000000000000000000000000000000000000000000000000000000000000000000000000000000000000000000000000000000000000000000000000000000000000000000000000000000000000000000000
310
0000000000000000000000000000000000000000000000000000000000000000000000000000000000000000000000000000DCDCDCDCDC0000000000DC0000DCDCDCDC00000000000000DCDC000000000000000000000000000000000000000000000000000000000000000000000000000000000000000000000000000000
310
00000000000000DCDC00DCDCDCDCDCDC000000000000000000000000000000000000000000000000000000000000000000000000000000000000000000000000000000000000000000000000000000000000000000000000000000000000000000000000000000000000000000000000000000000000000000000000000000
310
00000000000000000000000000000000000000000000000000000000000000000000000000000000000000000000000000000000DCDCDCDCDC0000000000DC0000DCDCDCDC00000000000000DCDC00000000000000000000000000000000000000000000000000000000000000000000000000000000000000000000000000
310
000000000000000000DCDC0000000000000000000000000000000000000000000000000000000000000000000000000000000000000000000000000000000000000000000000000000000000000000000000000000000000000000000000000000000000000000000000000000000000000000000000000000000000000000
310
00000000000000000000000000DCDCDCDCDCDCDCDCDCDCDCDCDCDCDCDCDCDCDCDCDCDCDCDCDCDCDCDCDCDCDCDCDCDCDCDC0000000000DCDCDCDCDC0000000000DC0000DCDCDCDC00000000000000DCDC0000000000000000000000000000000000000000000000000000000000000000000000000000000000000000000000
310
0000000000000000000000DCDC000000000000000000000000000000000000000000000000000000000000000000000000000000000000000000000000000000000000000000000000000000000000000000000000000000000000000000000000000000000000000000000000000000000000000000000000000000000000
310
000000000000000000000000000000DCDCDCDCDCDCDCDCDCDCDCDCDCDCDCDCDCDCDCDCDCDCDCDCDCDCDCDCDCDCDCDCDCDCDCDC0000000000DCDCDCDCDC0000000000DC0000DCDCDCDC00000000000000DCDC000000000000000000000000000000000000000000000000000000000000000000000000000000000000000000
310
00000000000000000000000000DCDC00000000000000000000000000000000000000000000000000000000000000000000000000000000000000000000000000000000000000000000000000000000000000000000000000000000000000000000000000000000000000000000000000000000000000000000000000000000
310
0000000000000000000000000000000000DCDCDCDCDCDCDCDCDCDCDCDCDCDCDCDCDCDCDCDCDCDCDCDCDCDCDCDCDCDCDCDCDCDCDCDC0000000000DCDCDCDCDC0000000000DC0000DCDCDCDC00000000000000DCDC00000000000000000000000000000000000000000000000000000000000000000000000000000000000000
310
000000000000000000000000000000DCDC0000DCDCDCDCDCDCDCDCDCDCDCDCDCDCDCDCDCDCDCDC00000000000000000000000000000000000000000000000000000000000000000000000000000000000000000000000000000000000000000000000000000000000000000000000000000000000000000000000000000000
310
00000000000000000000000000000000000000DCDCDCDCDCDCDCDCDCDCDCDCDCDCDCDCDCDCDCDCDCDCDCDCDCDCDCDCDCDCDCDCDCDCDCDC0000000000DCDCDCDCDC0000000000DC0000DCDC000000000000000000DCDC0000000000000000000000000000000000000000000000000000000000000000000000000000000000
310
0000000000000000000000000000000000DCDC0000DCDCDCDCDCDCDCDCDCDCDCDCDCDCDCDCDCDCDCDC0000000000000000000000000000000000000000000000000000000000000000000000000000000000000000000000000000000000000000000000000000000000000000000000000000000000000000000000000000
310
00000000000000000000000000000000DC00000000000000000000000000000000DCDCDCDCDCDCDCDCDCDCDC000000000000000000000000000000000000DCDCDCDCDC0000000000DC00000000000000000000000000DCDC000000000000000000000000000000000000000000000000000000000000000000000000000000
310
00000000000000000000000000000000000000DCDC0000DCDCDCDCDCDCDCDCDCDCDCDCDCDCDCDCDCDCDCDCDCDCDCDCDCDCDCDCDCDCDCDCDCDCDCDCDCDCDCDCDCDCDCDC000000000000000000000000000000000000000000000000000000000000000000000000000000000000000000000000000000000000000000000000
310
000000000000000000000000000000000000DCDCDCDCDCDCDCDCDCDCDCDCDCDCDCDCDCDCDCDCDCDCDCDCDCDCDCDC0000DCDCDCDCDCDCDCDCDCDCDCDCDCDCDCDCDCDCDCDCDC0000000000DC00000000000000000000000000DCDC00000000000000000000000000000000000000000000000000000000000000000000000000
310
000000000000000000000000000000000000000000DCDC0000DCDCDCDCDCDCDCDCDCDCDCDCDCDCDCDCDCDCDCDCDCDCDCDCDCDCDCDCDCDCDCDCDCDCDCDCDCDCDCDCDCDCDCDC00000000000000000000000000000000000000000000000000000000000000000000000000000000000000000000000000000000000000000000
310
0000000000000000000000000000000000000000DC000000000000000000000000000000000000000000000000000000000000000000000000000000000000000000DCDCDCDCDC0000000000DC000000DC000000000000000000DCDC0000000000000000000000000000000000000000000000000000000000000000000000
310
0000000000000000000000000000000000000000000000DCDC000000000000000000000000000000000000000000000000000000000000000000000000000000000000000000000000000000000000000000000000000000000000000000000000000000000000000000000000000000000000000000000000000000000000
310
00000000000000000000000000000000000000000000DC000000000000000000000000000000000000000000000000000000000000000000000000000000000000000000DCDCDCDCDC0000000000DC000000DC000000000000000000DCDC000000000000000000000000000000000000000000000000000000000000000000
310
00000000000000000000000000000000000000000000000000DCDC0000DCDCDCDCDCDCDCDCDCDCDCDCDCDCDCDCDCDCDCDCDCDCDCDCDCDCDCDCDCDCDCDCDCDCDCDCDC00000000000000000000000000000000000000000000000000000000000000000000000000000000000000000000000000000000000000000000000000
310
000000000000000000000000000000000000000000000000DC000000000000000000000000000000000000000000000000000000000000000000000000000000000000000000DCDCDCDCDC0000000000DC000000DC000000000000000000DCDC00000000000000000000000000000000000000000000000000000000000000
310
000000000000000000000000000000000000000000000000000000DCDC0000DCDCDCDCDCDCDCDCDCDCDCDCDCDCDCDCDCDCDCDCDCDCDCDCDCDCDCDCDCDCDCDCDCDCDCDCDC0000000000000000000000000000000000000000000000000000000000000000000000000000000000000000000000000000000000000000000000
310
0000000000000000000000000000000000000000000000000000DC000000000000000000000000000000000000000000000000000000000000000000000000000000000000000000DCDCDCDCDC0000000000DC000000DC000000000000000000DCDC0000000000000000000000000000000000000000000000000000000000
310
0000000000000000000000000000000000000000000000000000000000DCDC0000DCDCDCDCDCDCDCDCDCDCDCDCDCDCDCDCDC0000000000000000000000000000000000000000000000000000000000000000000000000000000000000000000000000000000000000000000000000000000000000000000000000000000000
310
00000000000000000000000000000000000000000000000000000000DC000000000000000000000000000000000000000000000000000000000000000000000000000000000000000000DCDCDC00DC0000000000DC000000DC000000000000000000DCDC000000000000000000000000000000000000000000000000000000
310
00000000000000000000000000000000000000000000000000000000000000DCDC0000DCDCDCDCDCDCDCDCDCDCDCDCDCDCDCDCDC000000000000000000000000000000000000000000000000000000000000000000000000000000000000000000000000000000000000000000000000000000000000000000000000000000
310
000000000000000000000000000000000000000000000000000000000000DC000000000000000000000000000000000000000000000000000000000000000000000000000000000000000000DCDCDCDCDC0000000000DC000000DC000000000000000000DCDC00000000000000000000000000000000000000000000000000
310
000000000000000000000000000000000000000000000000000000000000000000DCDC0000000000000000000000000000000000000000000000000000000000000000000000000000000000000000000000000000000000000000000000000000000000000000000000000000000000000000000000000000000000000000
310
0000000000000000000000000000000000000000000000000000000000000000DC000000000000000000000000000000000000000000000000000000000000000000000000000000000000000000DCDCDCDCDC0000000000DC000000DC000000000000000000DCDC0000000000000000000000000000000000000000000000
310
0000000000000000000000000000000000000000000000000000000000000000000000DCDC0000DCDCDCDCDCDCDCDCDCDCDCDCDCDCDCDCDCDCDC000000000000000000000000000000000000000000000000000000000000000000000000000000000000000000000000000000000000000000000000000000000000000000
310
00000000000000000000000000000000000000000000000000000000000000000000DC000000000000000000000000000000000000000000000000000000000000000000000000000000000000000000DCDCDCDCDC0000000000DC000000DC000000000000000000DCDC000000000000000000000000000000000000000000
310
00000000000000000000000000000000000000000000000000000000000000000000000000DCDC0000DCDCDCDCDCDCDCDCDCDCDCDCDCDCDCDCDCDCDC00000000000000000000000000000000000000000000000000000000000000000000000000000000000000000000000000000000000000000000000000000000000000
310
000000DCDCDCDCDCDCDCDCDCDCDCDCDCDCDCDCDCDCDCDCDCDCDCDCDCDCDCDCDCDCDCDCDCDCDCDCDCDCDCDCDCDCDCDCDCDCDCDCDCDCDCDCDCDCDCDCDCDCDCDCDCDCDCDCDCDCDCDCDCDCDCDCDCDCDCDCDCDCDCDCDCDCDCDCDCDCDCDCDCDCDCDCDCDCDCDCDCDCDC00000000DCDC00000000000000000000000000000000000000
310
000000000000000000000000000000000000000000000000000000000000000000000000000000DCDC0000DCDCDCDCDCDCDCDCDCDCDCDCDCDCDCDCDCDCDCDCDCDCDC00000000000000000000000000000000000000000000000000000000000000000000000000000000000000000000000000000000000000000000000000
310
0000000000DCDC00000000000000000000000000000000000000000000000000000000000000DC000000000000000000000000000000000000000000000000000000000000000000000000000000000000000000DCDC00DCDCDC0000DC00DC000000DC000000DCDC00000000DCDC0000000000000000000000000000000000
310
0000000000000000000000000000000000000000000000000000000000000000000000000000000000DCDC0000DCDCDCDCDCDCDCDCDCDCDCDCDCDCDCDCDCDCDCDCDCDC000000000000000000000000000000000000000000000000000000000000000000000000000000000000000000000000000000000000000000000000
310
0000000000000000DC00000000000000000000000000000000000000000000000000000000000000DC000000000000000000000000000000000000000000000000000000000000000000000000000000000000000000DCDC00DCDC0000DC0000DC000000DC000000DC0000000000DCDC000000000000000000000000000000
310
00000000000000000000000000000000000000000000000000000000000000000000000000000000000000DCDC00000000000000000000000000000000000000000000000000000000000000000000000000000000000000000000000000000000000000000000000000000000000000000000000000000000000000000000
310
00000000000000000000DC00000000000000000000000000000000000000000000000000000000000000DC0000000000000000000000000000000000000000000000DCDCDCDCDC0000000000000000000000000000000000DCDC00DCDC00DC0000DCDC000000DC000000DC0000000000DCDC00000000000000000000000000
310
000000000000000000000000000000000000000000000000000000000000000000000000000000000000000000DCDC0000000000000000000000000000000000000000000000000000000000000000000000000000000000000000000000000000000000000000000000000000000000000000000000000000000000000000
310
000000000000000000000000DC00000000000000000000000000000000000000000000000000000000000000DC0000000000000000000000000000000000000000000000DCDCDCDCDC0000000000000000000000000000000000DCDC00DCDCDC0000DC00DC000000DC000000DC0000000000DCDC0000000000000000000000
310
0000000000000000000000000000000000000000000000000000000000000000000000000000000000000000000000DCDC000000000000000000000000000000000000000000000000000000000000000000000000000000000000000000000000000000000000000000000000000000000000000000000000000000000000
310
0000000000000000000000000000DC00000000000000000000000000000000000000000000000000000000000000DC0000000000000000000000000000000000000000000000DCDCDCDCDCDCDCDC00000000000000000000000000DCDCDC00DCDC0000DC0000DC000000DC000000DC0000000000DCDC000000000000000000
310
00000000000000000000000000000000000000000000000000000000000000000000000000000000000000000000000000DCDC00000000000000000000000000000000000000000000000000000000000000000000000000000000000000000000000000000000000000000000000000000000000000000000000000000000
310
00000000000000000000000000000000DC00000000000000000000000000000000000000000000000000000000000000DC000000DCDCDCDCDCDCDCDC000000000000000000000000DCDCDCDCDCDCDC00DCDCDCDC000000000000000000DCDCDC00DCDC00DC0000DCDC000000DC000000DC0000000000DCDC00000000000000
310
000000000000000000000000000000000000000000000000000000000000000000000000000000000000000000000000000000DCDC0000DCDCDCDCDCDCDCDCDCDCDCDCDCDCDCDCDCDCDCDCDCDCDCDCDCDCDCDCDCDCDCDCDCDC0000000000000000000000000000000000000000000000000000000000000000000000000000
310
000000000000000000000000000000000000DCDCDC0000000000000000000000000000000000000000000000000000000000DCDCDCDCDCDCDCDCDCDCDCDC000000000000000000000000000000000000000000000000DC0000000000000000DCDCDC00DCDCDC0000DC00DC000000DC000000DC0000000000DCDC0000000000
310
0000000000000000000000000000000000000000000000000000000000000000000000000000000000000000000000000000000000DCDC0000DCDCDCDCDCDCDCDCDCDCDCDCDCDCDCDCDCDCDCDCDCDCDCDCDCDCDCDCDCDCDCDCDCDC000000000000000000000000000000000000000000000000000000000000000000000000
310
00000000000000000000000000000000000000DCDCDCDC0000000000000000000000000000000000000000000000000000000000DCDC00DCDCDCDCDCDCDC0000000000000000000000000000000000000000000000000000DC0000000000000000DCDCDCDCDCDC0000DC0000DC000000DC000000DC0000000000DCDC000000
310
00000000000000000000000000000000000000000000000000000000000000000000000000000000000000000000000000000000000000DCDC0000DCDCDCDCDCDCDCDCDCDCDCDCDCDCDCDCDCDCDCDCDCDCDCDCDCDCDCDCDCDCDCDC000000000000000000000000000000000000000000000000000000000000000000000000
310
000000000000000000000000000000000000000000DCDCDCDC0000000000000000000000000000000000000000000000000000000000DCDCDCDCDCDCDCDCDCDC000000000000000000000000000000000000000000000000000000DC00000000000000DCDC000000DC00DC0000DCDC000000DC000000DC0000000000DCDC00
310
000000000000000000000000000000000000000000000000000000000000000000000000000000000000000000000000000000000000000000DCDC0000DCDCDCDCDCDCDCDCDCDCDCDCDCDCDCDCDCDCDCDCDCDCDCDCDCDCDCDCDCDCDCDC00000000000000000000000000000000000000000000000000000000000000000000
310
0000000000000000000000000000000000000000000000DCDCDCDC0000000000000000000000000000000000000000000000000000000000DC000000000000000000000000000000000000000000000000000000000000000000000000DC00000000000000DCDCDCDCDCDCDC0000DC00DC000000DC000000DC0000000000DC
310
DC00000000000000000000000000000000000000000000000000000000000000000000000000000000000000000000000000000000000000000000DCDC000000000000000000000000000000000000000000000000000000000000000000000000000000000000000000000000000000000000000000000000000000000000
310
00000000000000000000000000000000000000000000000000DCDCDCDC0000000000000000000000000000000000000000000000000000000000DC000000DCDCDCDCDCDCDCDC0000000000000000000000000000000000000000000000000000DC00DCDCDCDCDCDCDCDCDCDCDCDCDCDCDCDCDCDC0000DC000000DC00000000
310
00DCDC00000000000000000000000000000000000000000000000000000000000000000000000000000000000000000000000000000000000000000000DCDC0000DCDCDCDCDCDCDCDCDCDCDCDCDCDCDCDCDCDCDCDCDCDCDCDCDCDCDC0000000000000000000000000000000000000000000000000000000000000000000000
310
000000000000000000000000000000000000000000000000000000DCDCDCDC0000000000DCDCDCDCDCDCDCDCDCDCDCDCDCDCDC000000000000000000DCDCDCDCDCDCDCDCDCDCDCDCDCDCDC0000000000000000000000000000000000000000000000DC000000000000000000000000000000000000000000DC0000DCDC0000
310
000000DCDC00000000000000000000000000000000000000000000000000000000000000000000000000000000000000000000000000000000000000000000DCDC0000DCDCDCDCDCDCDCDCDCDCDCDCDCDCDCDCDCDCDCDCDCDCDCDCDCDC00000000000000000000000000000000000000000000000000000000000000000000
310
0000000000000000000000000000000000000000000000000000000000DCDCDCDC0000000000DCDCDCDCDCDCDCDCDCDCDCDCDCDCDC0000DCDC0000000000DCDCDCDCDCDCDCDCDCDCDCDCDCDCDC000000000000000000000000000000000000000000000000DCDCDCDCDCDCDCDCDCDCDCDCDCDCDCDCDCDCDC0000DC0000DCDC
310
0000000000DCDC00000000000000000000000000000000000000000000000000000000000000000000000000000000000000000000000000000000000000000000DCDC000000000000000000000000000000000000000000000000000000000000000000000000000000000000000000000000000000000000000000000000
310
000000000000000000000000000000000000000000000000000000000000000000DCDC000000000000000000000000000000000000000000000000DC00000000DC0000000000000000000000000000000000000000000000000000000000000000000000000000DC0000DCDCDCDCDCDCDCDCDC0000DC0000DC000000DC0000
310
DCDC0000000000DCDC00000000000000000000000000000000000000000000000000000000000000000000000000000000000000000000000000000000000000000000DCDC00000000000000000000000000000000000000000000000000000000000000000000000000000000000000000000000000000000000000000000
310
0000000000000000000000000000000000000000000000000000000000000000000000DCDC00000000000000000000000000000000000000000000000000DC000000DCDCDCDCDCDCDCDCDCDCDCDCDCDCDCDCDCDCDCDCDC000000000000000000000000000000000000DCDCDCDCDC0000000000DCDC00DC0000DCDC000000DC
310
0000DCDC0000000000DCDC00000000000000000000000000000000000000000000000000000000000000000000000000000000000000000000000000000000000000000000DCDC0000000000000000000000000000000000000000000000000000000000000000000000000000000000000000000000000000000000000000
310
000000000000000000000000000000000000000000000000000000000000000000000000DC000000000000000000000000000000000000000000000000000000DC000000DCDCDCDCDCDCDCDCDCDCDCDCDCDCDCDCDCDCDCDC0000DCDCDC000000000000000000000000000000DCDCDCDC0000000000DCDCDC0000DC00DC0000
310
00DC0000DCDC0000000000DCDC00000000000000000000000000000000000000000000000000000000000000000000000000000000000000000000000000000000000000000000DCDC000000000000000000000000000000000000000000000000000000000000000000000000000000000000000000000000000000000000
310
0000000000000000000000000000000000000000000000000000000000000000000000000000DC00000000000000000000000000000000000000000000000000000000DC0000DC000000000000000000000000000000000000000000000000DC000000000000000000000000000000DCDC000000000000DCDC0000DC0000DC
310
000000DC0000DCDC0000000000DCDC00000000000000000000000000000000000000000000000000000000000000000000000000000000000000000000000000000000000000000000DCDC00000000000000000000000000000000000000000000000000000000000000000000000000000000000000000000000000000000
310
00000000000000000000000000000000000000000000000000000000000000000000000000000000DC0000000000000000000000000000000000000000000000000000000000DC00DC000000000000000000000000000000000000000000000000DC0000000000000000000000000000DCDCDC000000000000DCDC00DC0000
310
DCDC000000DC0000DCDC0000000000DCDC00000000000000000000000000000000000000000000000000000000000000000000000000000000000000000000000000000000000000000000DCDC0000DCDCDCDCDCDCDCDCDCDCDCDCDCDCDCDCDCDCDCDCDCDCDCDCDCDCDCDCDCDCDCDCDCDC0000000000000000000000000000
310
000000000000000000000000000000000000000000000000000000000000000000000000000000000000DC000000000000000000000000000000000000000000000000000000000000DCDC00000000000000000000000000000000000000000000000000DC000000000000000000000000DC00DC00000000000000DCDCDC00
310
00DC00DC000000DC0000DCDC0000000000DCDC00000000000000000000000000000000000000000000000000000000000000000000000000000000000000000000000000000000000000000000DCDC0000DCDCDCDCDCDCDC000000000000000000DCDC0000000000DCDC00000000000000DCDC000000000000000000000000
310
0000000000000000000000000000000000000000000000000000000000000000000000000000000000000000DC00000000000000000000000000000000000000000000000000000000000000DC00000000000000000000000000000000000000000000000000DC000000000000000000000000DCDC00000000000000DCDCDC
310
0000DC0000DC000000DC0000DCDC0000000000DCDC00000000000000000000000000000000000000000000000000000000000000000000000000000000000000000000000000000000000000000000DCDC0000DCDCDCDCDCDCDC000000000000000000DCDC0000000000DCDC00000000000000DCDC00000000000000000000
310
00000000000000000000000000000000000000000000000000000000000000000000000000000000000000000000DC00000000000000000000000000000000000000000000000000000000000000DCDC00000000000000000000000000000000000000000000000000DC00000000000000000000DCDCDC00DCDCDCDCDCDC00
310
00DC00DC0000DCDC000000DC0000DCDC0000000000DCDC00000000000000000000000000000000000000000000000000000000000000000000000000000000000000000000000000000000000000000000DCDC0000DCDCDCDCDCDCDCDCDCDCDCDCDCDCDCDCDCDCDCDCDCDCDCDCDCDCDCDCDCDCDCDCDCDC0000000000000000
310
0000000000000000000000000000000000000000000000000000000000000000000000000000000000000000000000DCDC00000000000000000000000000000000000000000000000000000000000000DCDC00000000000000000000000000000000000000000000000000DC00000000000000DCDCDCDCDCDCDC0000000000
310
00DCDCDCDC0000DC00DC000000DCDC00DCDC0000000000DCDC00000000000000000000000000000000000000000000000000000000000000000000000000000000000000000000000000000000000000000000DCDC0000DCDCDCDCDCDCDC000000000000000000DCDC0000000000DCDC00000000000000DCDC000000000000
310
00000000000000000000000000000000000000000000000000000000000000000000000000000000000000000000000000DCDCDCDCDCDCDCDCDCDCDCDCDCDCDCDCDCDCDCDCDCDCDCDCDCDCDCDCDCDCDCDCDCDCDCDCDCDCDCDCDCDCDCDCDCDCDCDCDCDCDCDCDCDCDCDCDCDCDCDCDCDCDCDCDCDCDCDCDCDCDCDCDCDCDCDCDCDC
310
DCDCDCDCDCDCDCDCDCDCDCDCDCDCDCDCDC0000000000000000DCDC00000000000000000000000000000000000000000000000000000000000000000000000000000000000000000000000000000000000000000000DCDC0000DCDCDCDCDCDCDC000000000000000000DCDC0000000000DCDC00000000000000DCDC00000000
310
000000000000000000000000000000000000000000000000000000000000000000000000000000000000000000000000000000000000000000000000000000000000000000000000000000000000000000000000DC0000DC000000000000000000DCDC000000000000000000DCDCDCDCDCDCDCDCDCDCDC00DCDCDCDCDCDC00
310
DC00DC0000DC00DC00DC0000DCDC00000000000000DC0000000000DCDC00000000000000000000000000000000000000000000000000000000000000000000000000000000000000000000000000000000000000000000DCDC0000DC000000000000000000000000000000DCDC0000000000000000000000000000DCDC0000
310
0000000000000000000000000000000000000000000000000000000000000000000000000000000000000000000000000000000000000000000000000000000000000000000000000000000000000000000000000000DC000000DCDCDC000000000000DCDC000000DCDCDCDCDCDCDCDCDCDCDCDCDCDCDCDCDCDC0000000000
310
0000DC00DCDCDCDCDCDCDC0000DC00DC00000000000000DC0000000000DCDC00000000000000000000000000000000000000000000000000000000000000000000000000000000000000000000000000000000000000000000DCDC0000DCDCDCDCDCDCDCDCDCDCDCDCDCDCDCDCDCDCDCDCDCDCDCDCDCDCDCDCDCDCDCDCDCDC
310
00000000000000000000000000000000000000000000000000000000000000000000000000000000000000000000000000000000000000000000000000000000000000000000000000000000000000000000000000000000DC000000DCDCDC000000000000DCDCDCDCDCDCDCDCDCDCDCDCDCDCDCDCDC000000000000000000
310
00000000DCDCDCDCDCDCDCDC0000DC0000DC00000000000000DC0000000000DCDC00000000000000000000000000000000000000000000000000000000000000000000000000000000000000000000000000000000000000000000DCDC0000DCDCDCDCDCDCDCDCDCDC000000000000DCDC0000000000DCDC00000000000000
310
DCDC000000000000000000000000000000000000000000000000000000000000000000000000000000000000000000000000000000000000000000DCDCDCDCDCDCDCDCDCDCDCDCDCDCDCDCDCDCDCDCDCDCDCDC00000000000000DC000000DC0000DC000000DCDCDCDCDCDCDCDCDCDCDCDCDC00000000000000000000000000
310
0000000000DC00DCDCDCDCDCDCDC00DC0000DCDC00000000000000DC0000000000DCDC00000000000000000000000000000000000000000000000000000000000000000000000000000000000000000000000000000000000000000000DCDC0000DC000000000000000000000000000000DCDC000000000000000000000000
310
0000DCDC000000000000000000000000000000000000000000000000000000000000000000000000000000000000000000000000000000000000000000DCDCDCDCDCDCDCDCDCDCDCDCDCDCDCDCDCDCDCDCDCDCDCDC00000000000000000000DCDCDCDCDCDCDCDCDCDCDCDCDCDCDC0000000000000000000000000000000000
310
00000000000000DC00DCDCDCDC00DCDCDC0000DC00DC00000000000000DC0000000000DCDC00000000000000000000000000000000000000000000000000000000000000000000000000000000000000000000000000000000000000000000DCDC0000DCDCDCDCDCDCDCDCDCDCDCDCDCDCDCDCDCDCDCDCDCDCDCDCDCDCDCDC
310
DCDCDCDCDCDC000000000000000000000000000000000000000000000000000000000000000000000000000000000000000000000000000000000000000000DCDCDCDCDCDCDCDCDCDCDCDCDCDC0000000000000000000000000000000000DCDCDCDCDCDCDCDCDCDCDC000000DCDCDCDC000000000000000000000000000000
310
000000000000000000DC00DCDCDC00DCDCDC0000DC0000DC00000000000000DC0000000000DCDC00000000000000000000000000000000000000000000000000000000000000000000000000000000000000000000000000000000000000000000DCDC0000DCDCDCDCDCDCDCDCDCDCDCDCDCDC0000DCDCDCDCDCDCDCDCDCDC
310
DCDCDC000000DCDC000000000000000000000000000000000000000000000000000000000000000000000000000000000000000000000000000000000000000000DCDCDCDCDCDCDCDCDCDCDCDCDCDC000000DCDCDC0000000000000000000000DCDCDCDCDCDCDC00DCDC00000000DCDCDCDC00000000000000000000000000
310
0000000000000000000000DC0000DCDCDCDC00DC00DC0000DCDC00000000000000DC0000000000DCDC00000000000000000000000000000000000000000000000000000000000000000000000000000000000000000000000000000000000000000000DCDC0000DC000000000000000000000000000000DCDC000000000000
310
0000000000000000DCDC0000000000000000000000000000000000000000000000000000000000000000000000000000000000000000000000000000000000000000000000000000000000000000000000000000000000DCDC000000000000000000DCDC000000000000000000000000DC00DCDC00DCDCDCDCDCDCDCDCDCDC
310
00000000000000000000000000DC00000000000000DCDC0000DC00DC00000000000000DC0000000000DCDC00000000000000000000000000000000000000000000000000000000000000000000000000000000000000000000000000000000000000000000DCDC0000DCDCDCDCDCDCDCDCDCDCDCDCDCDCDCDCDCDCDCDCDCDC
310
DCDCDCDCDCDCDCDCDCDCDCDC00000000000000000000000000000000000000000000000000000000000000000000000000000000000000000000000000000000000000000000000000000000000000000000000000000000000000DCDC00000000000000DCDC0000000000000000000000000000DCDC00DCDCDCDCDCDCDCDC
310
DCDC000000000000000000000000DC0000000000000000DC0000DC0000DC00000000000000DC0000000000DCDC00000000000000000000000000000000000000000000000000000000000000000000000000000000000000000000000000000000000000000000DCDC000000000000000000000000DCDCDCDCDCDCDCDCDCDC
310
DCDC000000000000000000000000000000000000000000000000000000000000000000000000000000000000000000000000000000000000000000000000000000000000000000000000000000000000000000000000000000000000000000DC000000000000DCDC000000000000000000000000DCDCDCDC00DCDCDCDCDCDC
310
DCDCDCDCDCDCDCDCDCDCDCDCDCDC0000DC0000000000000000DC00DC0000DCDC00000000000000DCDC00000000DCDC00000000000000000000000000000000000000000000000000000000000000000000000000000000000000000000000000000000000000000000DCDC000000000000000000000000DCDCDCDCDCDCDCDC
310
DCDCDCDC000000000000000000000000000000000000000000000000000000000000000000000000000000000000000000000000000000000000000000DCDCDCDCDCDCDCDCDCDCDCDCDCDCDCDCDCDCDC000000000000000000000000000000000000DCDC00000000DCDC00000000000000000000DCDC0000DCDC00DCDCDCDC
310
DCDCDCDCDCDCDCDCDCDCDCDCDCDCDC0000DCDC0000000000000000DCDC0000DC00DC00000000000000DCDC00000000DCDC00000000000000000000000000000000000000000000000000000000000000000000000000000000000000000000000000000000000000000000DCDC000000000000DCDCDCDCDCDCDCDCDCDCDCDC
310
DCDCDCDCDCDCDCDCDCDCDCDCDC0000000000000000000000000000000000000000000000000000000000000000000000000000000000000000000000000000DCDCDCDCDCDCDCDCDCDCDCDCDCDCDCDCDCDCDC0000000000000000000000000000000000000000DCDC0000DCDC0000000000000000DCDC00000000DCDC000000
310
00000000000000000000000000000000000000000000000000DCDCDC00DCDCDCDCDCDCDCDCDCDCDCDCDCDCDCDC00000000DCDC00000000000000000000000000000000000000000000000000000000000000000000000000000000000000000000000000000000000000000000DCDC000000000000DCDCDCDCDCDCDCDCDCDC
310
DCDCDCDCDCDCDCDCDCDCDCDCDCDCDC00000000000000000000000000000000000000000000000000000000000000000000000000000000000000000000000000DCDCDCDCDCDCDCDCDCDCDCDCDCDCDCDCDCDCDCDCDCDCDCDCDCDC00000000000000000000000000000000DC00DCDC000000000000DCDC000000000000DCDC00
310
000000000000000000000000000000000000000000DCDCDCDCDCDC00DCDCDCDC00DC0000DCDC00000000000000000000000000DCDC00000000000000000000000000000000000000000000000000000000000000000000000000000000000000000000000000000000000000000000DCDC0000000000000000000000000000
310
000000000000000000000000000000000000000000000000000000000000000000000000000000000000000000000000000000000000000000000000000000000000DCDCDCDCDCDCDCDCDCDCDCDCDCDCDCDCDCDCDCDCDCDCDCDCDCDC0000000000000000000000000000000000DCDCDC00000000DCDC0000000000000000DC
310
DC00000000000000000000000000000000DCDCDCDCDCDC00DCDCDCDCDCDC000000DCDC0000DC00DC00000000000000000000000000DCDC00000000000000000000000000000000000000000000000000000000000000000000000000000000000000000000000000000000000000000000DCDC000000000000000000000000
310
0000000000000000000000000000000000000000000000000000000000000000000000000000000000000000000000000000000000000000000000000000000000000000DCDC000000000000000000000000000000000000000000000000000000000000000000000000000000000000DCDC0000DCDC000000000000000000
310
00DCDC0000000000000000000000DCDCDCDCDC00DCDCDCDCDCDCDC00DCDC0000000000DC0000DC0000DC00000000000000000000000000DCDC00000000000000000000000000000000000000000000000000000000000000000000000000000000000000000000000000000000000000000000DCDC00000000DCDCDCDCDCDC
310
DCDCDCDCDCDCDCDCDCDCDCDCDCDCDCDCDCDCDCDCDCDCDC00000000000000000000000000000000000000000000000000000000000000000000000000000000000000000000000000DCDCDCDCDCDCDCDCDCDCDCDCDCDCDCDCDCDCDCDCDC000000000000000000000000000000000000000000DCDCDCDC000000000000000000
310
000000DCDC0000000000DCDCDCDCDCDCDCDCDCDCDCDC00000000DC00DCDCDC00DC00000000DC00DC0000DCDC00000000000000000000000000DCDC00000000000000000000000000000000000000000000000000000000000000000000000000000000000000000000000000000000000000000000DCDC0000DCDCDCDCDCDC
310
DCDCDCDCDCDCDCDCDCDCDCDCDCDCDCDCDCDCDCDCDCDCDCDCDC0000000000000000000000000000000000000000000000000000000000000000000000000000000000000000000000DCDCDCDCDCDCDCDCDCDCDCDCDCDCDCDCDCDCDCDCDCDCDCDCDC00000000000000000000000000000000000000DCDC000000000000000000
310
0000000000DCDCDCDCDCDCDC00DCDCDCDCDC0000DCDC0000000000DC00DC000000DC00DC000000DCDC0000DC00DC00000000000000000000000000DCDC00000000000000000000000000000000000000000000000000000000000000000000000000000000000000000000000000000000000000000000DCDC0000DCDCDC00
310
0000000000000000000000000000000000000000000000000000000000000000000000000000000000000000000000000000000000000000000000000000000000000000000000000000DCDCDCDCDCDCDCDCDCDCDCDCDCDCDCDCDCDCDCDCDCDCDCDCDC000000000000000000000000000000000000DCDCDC00000000000000
310
000000DCDCDCDCDC00DCDCDCDCDCDC0000DC00DCDCDC0000DC00000000DCDC0000000000DCDCDCDC00DCDCDCDC0000DC00000000000000000000000000DCDC00000000000000000000000000000000000000000000000000000000000000000000000000000000000000000000000000000000000000000000DCDC0000DCDC
310
DCDCDCDCDCDCDCDCDCDCDCDC00000000000000000000000000000000000000000000000000000000000000000000000000000000000000000000000000000000000000000000000000000000DCDC000000000000000000000000000000000000000000000000000000000000000000000000000000DCDC00DCDC00000000DC
310
DCDCDCDCDCDCDCDCDCDCDC00000000000000DC00DC000000DC0000DCDC00DCDC0000000000DCDCDCDCDCDC00DCDCDC00DCDC00000000000000000000000000DCDC00000000000000000000000000000000000000000000000000000000000000000000000000000000000000000000000000000000000000000000DCDC0000
310
DC00DCDCDCDCDCDCDCDCDCDCDCDC00000000000000000000000000000000000000000000000000000000000000000000000000000000000000000000000000000000000000000000000000000000000000000000000000000000000000000000000000000000000000000000000000000000000000DCDC000000DCDCDCDCDC
310
DCDCDCDCDCDCDC00DC00DC00DCDCDC0000000000DCDC0000000000DCDC0000DC00DCDCDCDCDCDC00DCDCDCDCDCDCDC0000DC00DC00000000000000000000000000DCDC00000000000000000000000000000000000000000000000000000000000000000000000000000000000000000000000000000000000000000000DCDC
310
0000DCDCDC000000000000000000000000000000000000000000000000000000000000000000000000000000000000000000000000000000000000000000000000000000000000000000000000000000DCDCDCDCDCDCDCDCDCDCDCDCDCDCDCDCDCDCDCDCDCDCDCDCDCDCDCDCDCDCDC000000000000DCDC0000DCDCDCDCDCDC
310
DCDCDC00000000000000DCDC000000DCDCDC000000DCDC00000000000000DCDCDCDCDC00DCDCDCDCDCDC0000000000DC0000DC0000DC00000000000000000000000000DCDC00000000000000000000000000000000000000000000000000000000000000000000000000000000000000000000000000000000000000000000
310
DCDC0000000000DCDCDCDCDCDCDCDCDCDCDCDCDCDCDCDCDCDCDCDCDCDCDCDCDCDCDCDCDCDCDCDCDCDCDC00000000000000000000000000000000000000000000000000000000000000000000000000000000DCDCDCDCDCDCDCDCDCDCDCDCDCDCDCDCDCDCDCDCDCDCDCDCDCDCDCDCDCDC0000000000DCDC00000000DCDCDCDC
310
00DCDC00DCDC0000000000DC00DC0000000000DCDCDCDC00DC00DCDCDCDCDCDCDCDCDCDCDCDC0000000000000000000000DC00DC0000DCDC00000000000000000000000000DCDC0000000000000000000000000000000000000000000000000000000000000000000000000000000000000000000000000000000000000000
310
0000DCDC0000000000DCDCDCDCDCDCDCDCDCDCDCDCDCDCDCDCDCDCDCDCDCDCDCDCDCDCDCDCDCDCDCDCDCDCDC00000000000000000000000000000000000000000000000000000000000000000000000000000000000000000000000000000000000000000000000000000000000000000000000000DCDC0000000000000000
310
00DC00DC00DCDC00DC000000DC00DC00000000000000DCDCDCDCDCDCDCDCDCDCDCDC0000000000000000000000000000000000DCDC0000DC00DC00000000000000000000000000DCDC000000000000000000000000000000000000000000000000000000000000000000000000000000000000000000000000000000000000
310
00000000DCDC00000000DCDCDCDCDCDCDCDCDCDCDCDCDCDCDCDCDCDCDCDCDCDCDCDCDCDCDCDCDCDCDCDCDCDC000000000000000000000000000000000000000000000000000000000000000000000000000000000000DCDCDCDCDCDCDCDCDCDCDCDCDCDCDCDCDCDCDCDCDCDCDCDCDC00DCDCDCDCDCDCDC0000000000000000
310
0000DC00DC00000000DC00DCDCDC00DC000000DCDCDCDCDCDCDCDCDCDCDC0000000000000000000000000000000000000000000000DC0000DC0000DC00000000000000000000000000DCDC00000000000000000000000000000000000000000000000000000000000000000000000000000000000000000000000000000000
310
000000000000DCDC00000000DCDCDCDCDCDCDCDCDCDCDCDCDCDCDCDCDCDCDCDCDCDCDCDCDCDCDCDCDCDCDCDCDCDC000000000000000000000000000000000000000000000000000000000000000000000000000000000000DCDCDCDCDCDCDCDCDCDCDCDCDCDCDCDCDCDCDCDCDCDCDCDCDC0000000000000000000000000000
310
00000000DCDC000000000000DCDC00DCDCDCDCDCDCDCDCDCDCDCDC000000000000000000000000000000000000000000000000000000000000000000000000000000000000000000000000DCDC0000000000000000000000000000000000000000000000000000000000000000000000000000000000000000000000000000
310
0000000000F50000DCDC000000000000000000000000000000000000000000000000000000000000000000000000000000000000000000000000000000000000000000000000000000000000000000000000000000000000000000000000000000000000000000000000000000000000000000000000000000000000000000
310
0000000000DC00DC00000000DCDCDCDCDCDCDCDCDCDCDC000000000000000000000000000000000000000000000000000000000000000000000000000000000000000000000000000000000000DCDC0000F5000000000000000000000000000000000000000000000000000000000000000000000000000000000000000000
310
00000000000000F50000DCDC00DCDCDCDCDCDCDCDCDCDCDCDCDCDCDCDCDCDCDCDCDCDCDCDCDCDCDCDCDCDCDCDCDCDCDCDCDCDCDCDCDCDCDCDCDCDCDCDCDCDCDCDCDCDCDCDCDCDCDCDCDCDCDCDCDCDCDCDC00000000000000000000000000000000000000000000000000000000000000000000000000000000000000000000
310
00000000000000DCDCDCDCDCDCDCDCDCDCDCDC000000000000000000000000000000000000000000000000000000000000000000000000000000000000000000000000000000000000000000000000DCDC0000F500000000000000000000000000000000000000000000000000000000000000000000000000000000000000
310
000000000000000000F50000DCDC00DCDCDCDCDCDCDCDCDCDCDCDCDCDCDCDCDCDCDCDCDCDCDCDCDCDCDCDCDCDCDCDCDCDCDCDCDCDCDCDCDCDCDCDCDCDCDCDCDCDCDCDCDCDCDCDCDCDCDCDCDCDCDCDCDCDCDC000000000000000000000000000000000000000000000000000000000000000000000000000000000000000000
310
00000000000000DCDCDCDCDCDCDCDC000000000000000000000000000000000000000000000000000000000000000000000000000000000000000000000000000000000000000000000000000000000000DCDC0000F50000000000000000000000000000000000000000000000000000000000000000000000000000000000
310
0000000000000000000000F50000DCDC00DCDCDCDCDCDCDCDCDCDCDCDCDCDCDCDCDCDCDCDCDCDCDCDCDCDCDCDCDCDCDCDCDCDCDCDCDCDCDCDCDCDCDCDCDCDCDCDCDCDCDCDCDCDCDCDCDCDCDCDCDCDCDCDCDCDCDC00000000000000000000000000000000000000000000000000000000000000000000000000000000000000
310
0000000000000000DCDCDC000000000000000000000000000000000000000000000000000000000000000000000000000000000000000000000000000000000000000000000000000000000000000000000000DCDC0000F5000000000000000000000000000000000000000000000000000000000000000000000000000000
310
00000000000000000000000000F50000DCDC00DCDCDCDCDCDCDCDCDCDCDCDCDCDCDCDCDCDCDCDCDCDCDCDCDCDCDCDCDCDCDCDCDCDCDCDCDCDCDCDCDCDCDCDCDCDCDCDCDCDCDCDCDCDCDCDCDCDCDCDCDCDCDCDCDCDCDC0000000000000000000000000000000000000000000000000000000000000000000000000000000000
310
00000000000000000000000000000000000000000000000000000000000000000000000000000000000000000000000000000000000000000000000000000000000000000000000000000000000000000000000000DCDC0000F500000000000000000000000000000000000000000000000000000000000000000000000000
310
000000000000000000000000000000F50000DCDC0000000000000000000000000000000000000000000000000000000000000000000000000000000000000000000000000000000000000000000000000000000000000000000000000000000000000000000000000000000000000000000000000000000000000000000000
310
000000000000000000000000000000000000000000000000000000000000000000000000000000000000000000000000000000000000000000000000000000000000000000000000000000000000000000000000000000DCDC0000F50000000000000000000000000000000000000000000000000000000000000000000000
310
0000000000000000000000000000000000F50000DCDCDCDCDCDCDCDCDCDCDCDCDCDCDCDCDCDCDCDCDCDCDCDCDCDCDCDCDCDCDCDCDCDCDCDCDCDCDCDCDCDCDCDCDCDCDCDCDCDCDCDCDCDCDCDCDCDCDCDCDCDCDCDCDCDCDCDCDCDCDCDCDCDCDCDCDCDCDCDCDCDCDCDCDCDCDCDCDCDCDCDCDCDCDCDCDCDCDCDCDCDCDCDCDCDCDC
310
DCDCDCDCDCDCDCDCDCDCDCDCDCDCDCDCDCDCDCDCDCDCDCDCDCDCDCDCDCDCDCDCDCDCDCDCDCDCDCDCDCDCDCDCDCDCDCDCDCDCDCDCDCDCDCDCDCDCDCDCDCDCDCDCDCDCDCDCDCDCDCDCDCDCDCDCDCDCDCDCDCDCDCDCDCDCDCDCDCDCDC0000F5000000000000000000000000000000000000000000000000000000000000000000
310
00000000000000000000000000000000000000F50000000000000000000000000000000000000000000000000000000000000000000000000000000000000000000000000000000000000000000000000000000000000000000000000000000000000000000000000000000000000000000000000000000000000000000000
310
0000000000000000000000000000000000000000000000000000000000000000000000000000000000000000000000000000000000000000000000000000000000000000000000000000000000000000000000000000000000000000000000F500000000000000000000000000000000000000000000000000000000000000
310
000000000000000000000000000000000000000000F5000000000000000000000000000000000000000000000000000000000000000000000000000000000000000000000000000000000000000000000000000000000000000000000000000000000000000000000000000000000000000000000000000000000000000000
310
00000000000000000000000000000000000000000000000000000000000000000000000000000000000000000000000000000000000000000000000000000000000000000000000000000000000000000000000000000000000000000000000000F50000000000000000000000000000000000000000000000000000000000
310
0000000000000000000000000000F5F5F5F5F5F5F5F5F5F5F5F5F5F5F500F5F5F5F5000000000000000000000000000000000000000000000000000000000000000000000000000000000000000000000000000000000000000000000000000000000000000000000000000000000000000000000000000000000000000000
310
0000000000000000000000000000000000000000000000000000000000000000000000000000000000000000000000000000000000000000000000000000000000000000000000000000000000000000000000000000000000F5F5F5F500F5F5F5F5F5F5F5F5F5F5F5F5F5F5F5000000000000000000000000000000000000
310
00000000000000000000000000000000000000000000000000F50000000000000000000000000000000000000000000000000000000000000000000000000000000000000000000000000000000000000000000000000000000000000000000000000000000000000000000000000000000000000000000000000000000000
310
0000000000000000000000000000000000000000000000000000000000000000000000000000000000000000000000000000000000000000000000000000000000000000000000000000000000000000000000000000000000000000000000000000000000F500000000000000000000000000000000000000000000000000
310
000000000000000000000000000000000000000000000000000000F5000000000000000000000000000000000000000000000000000000000000000000000000000000000000000000000000000000000000000000000000000000000000000000000000000000000000000000000000000000000000000000000000000000
310
00000000000000000000000000000000000000000000000000000000000000000000000000000000000000000000000000000000000000000000000000000000000000000000000000000000000000000000000000000000000000000000000000000000000000F50000000000000000000000000000000000000000000000
310
0000000000000000000000000000000000000000000000000000000000F500000000000000000000000000000000000000000000000000000000000000000000000000000000000000000000000000000000000000000000000000000000000000000000000000000000000000000000000000000000000000000000000000
310
000000000000000000000000000000000000000000000000000000000000000000000000000000000000000000000000000000000000000000000000000000000000000000000000000000000000000000000000000000000000000000000000000000000000000000F5000000000000000000000000000000000000000000
310
00000000000000000000000000000000000000000000000000000000000000F50000000000000000000000000000000000000000000000000000000000000000000000000000000000000000000000000000000000000000000000000000000000000000000000000000000000000000000000000000000000000000000000
310
0000000000000000000000000000000000000000000000000000000000000000000000000000000000000000000000000000000000000000000000000000000000000000000000000000000000000000000000000000000000000000000000000000000000000000000000F500000000000000000000000000000000000000
310
000000000000000000000000000000000000000000000000000000000000000000F5000000000000000000000000000000000000000000000000000000000000000000000000000000000000000000000000000000000000000000000000000000000000000000000000000000000000000000000000000000000000000000
310
00000000000000000000000000000000000000000000000000000000000000000000000000000000000000000000000000000000000000000000000000000000000000000000000000000000000000000000000000000000000000000000000000000000000000000000000000F50000000000000000000000000000000000
310
00000000000000000000000000000000000000000000000000000000000000000000000000000000000000000000000000000000000000000000000000000000000000000000000000000000000000000000000000000000000000000000000000000000000000000000000000000000000000000000000000000000000000
310
00000000000000000000000000000000000000000000000000000000000000000000000000000000000000000000000000000000000000000000000000000000000000000000000000000000000000000000000000000000000000000000000000000000000000000000000000000000000000000000000000000000000000
310
00000000000000000000000000000000000000000000000000000000000000000000000000F50000000000000000000000000000000000000000000000000000000000000000000000000000000000000000000000000000000000000000000000000000000000000000000000000000000000000000000000000000000000
310
0000000000000000000000000000000000000000000000000000000000000000000000000000000000000000000000000000000000000000000000000000000000000000000000000000000000000000000000000000000000000000000000000000000000000000000000000000000000F500000000000000000000000000
310
000000000000000000000000000000000000000000000000000000000000000000000000000000F5000000000000000000000000000000000000000000000000000000000000000000000000000000000000000000000000000000000000000000000000000000000000000000000000000000000000000000000000000000
310
00000000000000000000000000000000000000000000000000000000000000000000000000000000000000000000000000000000000000000000000000000000000000000000000000000000000000000000000000000000000000000000000000000000000000000000000000000000000000F50000000000000000000000
310
0000000000000000000000000000000000000000000000000000000000000000000000000000000000F500000000000000000000000000000000000000000000000000000000000000000000000000000000000000000000000000000000000000000000000000000000000000000000000000000000000000000000000000
310
000000000000000000000000000000000000000000000000000000000000000000000000000000000000000000000000000000000000000000000000000000000000000000000000000000000000000000000000000000000000000000000000000000000000000000000000000000000000000000F5000000000000000000
310
00000000000000000000000000000000000000000000000000000000000000000000000000000000000000000000000000000000000000000000000000000000000000000000000000000000000000000000000000000000000000000000000000000000000000000000000000000000000000000000000000000000000000
310
00000000000000000000000000000000000000000000000000000000000000000000000000000000000000000000000000000000000000000000000000000000000000000000000000000000000000000000000000000000000000000000000000000000000000000000000000000000000000000000000000000000000000
310
00000000000000000000000000000000000000
  0
XRECORD
  5
69D
102
{ACAD_REACTORS
330
69B
102
}
330
69B
100
AcDbXrecord
280
     1
270
     1
271
     1
  0
XRECORD
  5
69C
102
{ACAD_REACTORS
330
69B
102
}
330
69B
100
AcDbXrecord
280
     1
270
     1
271
     1
  0
XRECORD
  5
6A0
102
{ACAD_REACTORS
330
69B
102
}
330
69B
100
AcDbXrecord
280
     1
270
     1
271
     1
  0
XRECORD
  5
69F
102
{ACAD_REACTORS
330
69B
102
}
330
69B
100
AcDbXrecord
280
     1
270
     1
271
     1
  0
XRECORD
  5
6A1
102
{ACAD_REACTORS
330
69B
102
}
330
69B
100
AcDbXrecord
280
     1
270
     1
271
     1
  0
XRECORD
  5
69E
102
{ACAD_REACTORS
330
69B
102
}
330
69B
100
AcDbXrecord
280
     1
270
     1
271
     1
  0
XRECORD
  5
695
102
{ACAD_REACTORS
330
693
102
}
330
693
100
AcDbXrecord
280
     1
270
     1
271
     1
  0
XRECORD
  5
694
102
{ACAD_REACTORS
330
693
102
}
330
693
100
AcDbXrecord
280
     1
270
     1
271
     1
  0
XRECORD
  5
698
102
{ACAD_REACTORS
330
693
102
}
330
693
100
AcDbXrecord
280
     1
270
     1
271
     1
  0
XRECORD
  5
697
102
{ACAD_REACTORS
330
693
102
}
330
693
100
AcDbXrecord
280
     1
270
     1
271
     1
  0
XRECORD
  5
699
102
{ACAD_REACTORS
330
693
102
}
330
693
100
AcDbXrecord
280
     1
270
     1
271
     1
  0
XRECORD
  5
696
102
{ACAD_REACTORS
330
693
102
}
330
693
100
AcDbXrecord
280
     1
270
     1
271
     1
  0
XRECORD
  5
6A5
102
{ACAD_REACTORS
330
6A3
102
}
330
6A3
100
AcDbXrecord
280
     1
270
     1
271
     1
  0
XRECORD
  5
6A4
102
{ACAD_REACTORS
330
6A3
102
}
330
6A3
100
AcDbXrecord
280
     1
270
     1
271
     1
  0
XRECORD
  5
6A8
102
{ACAD_REACTORS
330
6A3
102
}
330
6A3
100
AcDbXrecord
280
     1
270
     1
271
     1
  0
XRECORD
  5
6A7
102
{ACAD_REACTORS
330
6A3
102
}
330
6A3
100
AcDbXrecord
280
     1
270
     1
271
     1
  0
XRECORD
  5
6A9
102
{ACAD_REACTORS
330
6A3
102
}
330
6A3
100
AcDbXrecord
280
     1
270
     1
271
     1
  0
XRECORD
  5
6A6
102
{ACAD_REACTORS
330
6A3
102
}
330
6A3
100
AcDbXrecord
280
     1
270
     1
271
     1
  0
CELLSTYLEMAP
  5
750
102
{ACAD_REACTORS
330
74F
102
}
330
74F
100
AcDbCellStyleMap
 90
        3
300
CELLSTYLE
  1
TABLEFORMAT_BEGIN
 90
        5
170
     1
 91
        0
 92
    32768
 62
   257
 93
        1
300
CONTENTFORMAT
  1
CONTENTFORMAT_BEGIN
 90
        0
 91
        0
 92
      512
 93
        0
300

 40
0.0
140
1.0
 94
        5
 62
     0
340
F
144
0.25
309
CONTENTFORMAT_END
171
     0
 94
        0
309
TABLEFORMAT_END
  1
CELLSTYLE_BEGIN
 90
        1
 91
        1
300
_TITLE
309
CELLSTYLE_END
300
CELLSTYLE
  1
TABLEFORMAT_BEGIN
 90
        5
170
     1
 91
        0
 92
        0
 62
   257
 93
        1
300
CONTENTFORMAT
  1
CONTENTFORMAT_BEGIN
 90
        0
 91
        0
 92
      512
 93
        0
300

 40
0.0
140
1.0
 94
        5
 62
     0
340
F
144
0.18
309
CONTENTFORMAT_END
171
     0
 94
        0
309
TABLEFORMAT_END
  1
CELLSTYLE_BEGIN
 90
        2
 91
        1
300
_HEADER
309
CELLSTYLE_END
300
CELLSTYLE
  1
TABLEFORMAT_BEGIN
 90
        5
170
     1
 91
        0
 92
        0
 62
   257
 93
        1
300
CONTENTFORMAT
  1
CONTENTFORMAT_BEGIN
 90
        0
 91
        0
 92
      512
 93
        0
300

 40
0.0
140
1.0
 94
        2
 62
     0
340
F
144
0.18
309
CONTENTFORMAT_END
171
     0
 94
        0
309
TABLEFORMAT_END
  1
CELLSTYLE_BEGIN
 90
        3
 91
        2
300
_DATA
309
CELLSTYLE_END
  0
XRECORD
  5
75D
102
{ACAD_REACTORS
330
75C
102
}
330
75C
100
AcDbXrecord
280
     1
102
RTVSPropertyOp0
 70
     1
102
RTVSPropertyOp1
 70
     1
102
RTVSPropertyOp2
 70
     1
102
RTVSPropertyOp3
 70
     1
102
RTVSPropertyOp4
 70
     1
102
RTVSPropertyOp5
 70
     1
102
RTVSPropertyOp6
 70
     1
102
RTVSPropertyOp7
 70
     1
102
RTVSPropertyOp8
 70
     1
102
RTVSPropertyOp9
 70
     1
102
RTVSPropertyOp10
 70
     1
102
RTVSPropertyOp11
 70
     1
102
RTVSPropertyOp12
 70
     1
102
RTVSPropertyOp13
 70
     1
102
RTVSPropertyOp14
 70
     1
102
RTVSPropertyOp15
 70
     1
102
RTVSPropertyOp16
 70
     1
102
RTVSPropertyOp17
 70
     1
102
RTVSPropertyOp18
 70
     1
102
RTVSPropertyOp19
 70
     1
102
RTVSPropertyOp20
 70
     1
102
RTVSPropertyOp21
 70
     1
102
RTVSPropertyOp22
 70
     1
102
RTVSPropertyOp23
 70
     1
102
RTVSPropertyOp24
 70
     1
102
RTVSPropertyOp25
 70
     1
102
RTVSPropertyOp26
 70
     1
102
RTVSPropertyOp27
 70
     1
102
RTVSPropertyOp28
 70
     1
102
RTVSPropertyOp29
 70
     1
102
RTVSPropertyOp30
 70
     1
102
RTVSPropertyOp31
 70
     1
102
RTVSPropertyOp32
 70
     1
  0
XRECORD
  5
75B
102
{ACAD_REACTORS
330
75A
102
}
330
75A
100
AcDbXrecord
280
     1
102
RTVSPropertyOp0
 70
     1
102
RTVSPropertyOp1
 70
     1
102
RTVSPropertyOp2
 70
     1
102
RTVSPropertyOp3
 70
     1
102
RTVSPropertyOp4
 70
     1
102
RTVSPropertyOp5
 70
     1
102
RTVSPropertyOp6
 70
     1
102
RTVSPropertyOp7
 70
     1
102
RTVSPropertyOp8
 70
     1
102
RTVSPropertyOp9
 70
     1
102
RTVSPropertyOp10
 70
     1
102
RTVSPropertyOp11
 70
     1
102
RTVSPropertyOp12
 70
     1
102
RTVSPropertyOp13
 70
     1
102
RTVSPropertyOp14
 70
     1
102
RTVSPropertyOp15
 70
     1
102
RTVSPropertyOp16
 70
     1
102
RTVSPropertyOp17
 70
     1
102
RTVSPropertyOp18
 70
     1
102
RTVSPropertyOp19
 70
     1
102
RTVSPropertyOp20
 70
     1
102
RTVSPropertyOp21
 70
     1
102
RTVSPropertyOp22
 70
     1
102
RTVSPropertyOp23
 70
     1
102
RTVSPropertyOp24
 70
     1
102
RTVSPropertyOp25
 70
     1
102
RTVSPropertyOp26
 70
     1
102
RTVSPropertyOp27
 70
     1
102
RTVSPropertyOp28
 70
     1
102
RTVSPropertyOp29
 70
     1
102
RTVSPropertyOp30
 70
     1
102
RTVSPropertyOp31
 70
     1
102
RTVSPropertyOp32
 70
     1
  0
XRECORD
  5
769
102
{ACAD_REACTORS
330
768
102
}
330
768
100
AcDbXrecord
280
     1
102
RTVSPropertyOp0
 70
     1
102
RTVSPropertyOp1
 70
     1
102
RTVSPropertyOp2
 70
     1
102
RTVSPropertyOp3
 70
     1
102
RTVSPropertyOp4
 70
     1
102
RTVSPropertyOp5
 70
     1
102
RTVSPropertyOp6
 70
     1
102
RTVSPropertyOp7
 70
     1
102
RTVSPropertyOp8
 70
     1
102
RTVSPropertyOp9
 70
     1
102
RTVSPropertyOp10
 70
     1
102
RTVSPropertyOp11
 70
     1
102
RTVSPropertyOp12
 70
     1
102
RTVSPropertyOp13
 70
     1
102
RTVSPropertyOp14
 70
     1
102
RTVSPropertyOp15
 70
     1
102
RTVSPropertyOp16
 70
     1
102
RTVSPropertyOp17
 70
     1
102
RTVSPropertyOp18
 70
     1
102
RTVSPropertyOp19
 70
     1
102
RTVSPropertyOp20
 70
     1
102
RTVSPropertyOp21
 70
     1
102
RTVSPropertyOp22
 70
     1
102
RTVSPropertyOp23
 70
     1
102
RTVSPropertyOp24
 70
     1
102
RTVSPropertyOp25
 70
     1
102
RTVSPropertyOp26
 70
     1
102
RTVSPropertyOp27
 70
     1
102
RTVSPropertyOp28
 70
     1
102
RTVSPropertyOp29
 70
     1
102
RTVSPropertyOp30
 70
     1
102
RTVSPropertyOp31
 70
     1
102
RTVSPropertyOp32
 70
     1
  0
XRECORD
  5
771
102
{ACAD_REACTORS
330
770
102
}
330
770
100
AcDbXrecord
280
     1
102
RTVSPropertyOp0
 70
     1
102
RTVSPropertyOp1
 70
     1
102
RTVSPropertyOp2
 70
     1
102
RTVSPropertyOp3
 70
     1
102
RTVSPropertyOp4
 70
     1
102
RTVSPropertyOp5
 70
     1
102
RTVSPropertyOp6
 70
     1
102
RTVSPropertyOp7
 70
     1
102
RTVSPropertyOp8
 70
     1
102
RTVSPropertyOp9
 70
     1
102
RTVSPropertyOp10
 70
     1
102
RTVSPropertyOp11
 70
     1
102
RTVSPropertyOp12
 70
     1
102
RTVSPropertyOp13
 70
     1
102
RTVSPropertyOp14
 70
     1
102
RTVSPropertyOp15
 70
     1
102
RTVSPropertyOp16
 70
     1
102
RTVSPropertyOp17
 70
     1
102
RTVSPropertyOp18
 70
     1
102
RTVSPropertyOp19
 70
     1
102
RTVSPropertyOp20
 70
     1
102
RTVSPropertyOp21
 70
     1
102
RTVSPropertyOp22
 70
     1
102
RTVSPropertyOp23
 70
     1
102
RTVSPropertyOp24
 70
     1
102
RTVSPropertyOp25
 70
     1
102
RTVSPropertyOp26
 70
     1
102
RTVSPropertyOp27
 70
     1
102
RTVSPropertyOp28
 70
     1
102
RTVSPropertyOp29
 70
     1
102
RTVSPropertyOp30
 70
     1
102
RTVSPropertyOp31
 70
     1
102
RTVSPropertyOp32
 70
     1
  0
XRECORD
  5
763
102
{ACAD_REACTORS
330
762
102
}
330
762
100
AcDbXrecord
280
     1
102
RTVSPropertyOp0
 70
     1
102
RTVSPropertyOp1
 70
     1
102
RTVSPropertyOp2
 70
     1
102
RTVSPropertyOp3
 70
     1
102
RTVSPropertyOp4
 70
     1
102
RTVSPropertyOp5
 70
     1
102
RTVSPropertyOp6
 70
     1
102
RTVSPropertyOp7
 70
     1
102
RTVSPropertyOp8
 70
     1
102
RTVSPropertyOp9
 70
     1
102
RTVSPropertyOp10
 70
     1
102
RTVSPropertyOp11
 70
     1
102
RTVSPropertyOp12
 70
     1
102
RTVSPropertyOp13
 70
     1
102
RTVSPropertyOp14
 70
     1
102
RTVSPropertyOp15
 70
     1
102
RTVSPropertyOp16
 70
     1
102
RTVSPropertyOp17
 70
     1
102
RTVSPropertyOp18
 70
     1
102
RTVSPropertyOp19
 70
     1
102
RTVSPropertyOp20
 70
     1
102
RTVSPropertyOp21
 70
     1
102
RTVSPropertyOp22
 70
     1
102
RTVSPropertyOp23
 70
     1
102
RTVSPropertyOp24
 70
     1
102
RTVSPropertyOp25
 70
     1
102
RTVSPropertyOp26
 70
     1
102
RTVSPropertyOp27
 70
     1
102
RTVSPropertyOp28
 70
     1
102
RTVSPropertyOp29
 70
     1
102
RTVSPropertyOp30
 70
     1
102
RTVSPropertyOp31
 70
     1
102
RTVSPropertyOp32
 70
     1
  0
XRECORD
  5
767
102
{ACAD_REACTORS
330
766
102
}
330
766
100
AcDbXrecord
280
     1
102
RTVSPropertyOp0
 70
     1
102
RTVSPropertyOp1
 70
     1
102
RTVSPropertyOp2
 70
     1
102
RTVSPropertyOp3
 70
     1
102
RTVSPropertyOp4
 70
     1
102
RTVSPropertyOp5
 70
     1
102
RTVSPropertyOp6
 70
     1
102
RTVSPropertyOp7
 70
     1
102
RTVSPropertyOp8
 70
     1
102
RTVSPropertyOp9
 70
     1
102
RTVSPropertyOp10
 70
     1
102
RTVSPropertyOp11
 70
     1
102
RTVSPropertyOp12
 70
     1
102
RTVSPropertyOp13
 70
     1
102
RTVSPropertyOp14
 70
     1
102
RTVSPropertyOp15
 70
     1
102
RTVSPropertyOp16
 70
     1
102
RTVSPropertyOp17
 70
     1
102
RTVSPropertyOp18
 70
     1
102
RTVSPropertyOp19
 70
     1
102
RTVSPropertyOp20
 70
     1
102
RTVSPropertyOp21
 70
     1
102
RTVSPropertyOp22
 70
     1
102
RTVSPropertyOp23
 70
     1
102
RTVSPropertyOp24
 70
     1
102
RTVSPropertyOp25
 70
     1
102
RTVSPropertyOp26
 70
     1
102
RTVSPropertyOp27
 70
     1
102
RTVSPropertyOp28
 70
     1
102
RTVSPropertyOp29
 70
     1
102
RTVSPropertyOp30
 70
     1
102
RTVSPropertyOp31
 70
     1
102
RTVSPropertyOp32
 70
     1
  0
XRECORD
  5
781
102
{ACAD_REACTORS
330
780
102
}
330
780
100
AcDbXrecord
280
     1
102
RTVSPropertyOp0
 70
     0
102
RTVSPropertyOp1
 70
     0
102
RTVSPropertyOp2
 70
     0
102
RTVSPropertyOp3
 70
     0
102
RTVSPropertyOp4
 70
     0
102
RTVSPropertyOp5
 70
     0
102
RTVSPropertyOp6
 70
     0
102
RTVSPropertyOp7
 70
     0
102
RTVSPropertyOp8
 70
     0
102
RTVSPropertyOp9
 70
     0
102
RTVSPropertyOp10
 70
     0
102
RTVSPropertyOp11
 70
     0
102
RTVSPropertyOp12
 70
     0
102
RTVSPropertyOp13
 70
     0
102
RTVSPropertyOp14
 70
     2
102
RTVSPropertyOp15
 70
     0
102
RTVSPropertyOp16
 70
     0
102
RTVSPropertyOp17
 70
     0
102
RTVSPropertyOp18
 70
     0
102
RTVSPropertyOp19
 70
     0
102
RTVSPropertyOp20
 70
     0
102
RTVSPropertyOp21
 70
     0
102
RTVSPropertyOp22
 70
     0
102
RTVSPropertyOp23
 70
     0
102
RTVSPropertyOp24
 70
     0
102
RTVSPropertyOp25
 70
     0
102
RTVSPropertyOp26
 70
     0
102
RTVSPropertyOp27
 70
     0
102
RTVSPropertyOp28
 70
     0
102
RTVSPropertyOp29
 70
     0
102
RTVSPropertyOp30
 70
     0
102
RTVSPropertyOp31
 70
     0
102
RTVSPropertyOp32
 70
     0
  0
XRECORD
  5
76F
102
{ACAD_REACTORS
330
76E
102
}
330
76E
100
AcDbXrecord
280
     1
102
RTVSPropertyOp0
 70
     1
102
RTVSPropertyOp1
 70
     1
102
RTVSPropertyOp2
 70
     1
102
RTVSPropertyOp3
 70
     1
102
RTVSPropertyOp4
 70
     1
102
RTVSPropertyOp5
 70
     1
102
RTVSPropertyOp6
 70
     1
102
RTVSPropertyOp7
 70
     1
102
RTVSPropertyOp8
 70
     1
102
RTVSPropertyOp9
 70
     1
102
RTVSPropertyOp10
 70
     1
102
RTVSPropertyOp11
 70
     1
102
RTVSPropertyOp12
 70
     1
102
RTVSPropertyOp13
 70
     1
102
RTVSPropertyOp14
 70
     1
102
RTVSPropertyOp15
 70
     1
102
RTVSPropertyOp16
 70
     1
102
RTVSPropertyOp17
 70
     1
102
RTVSPropertyOp18
 70
     1
102
RTVSPropertyOp19
 70
     1
102
RTVSPropertyOp20
 70
     1
102
RTVSPropertyOp21
 70
     1
102
RTVSPropertyOp22
 70
     1
102
RTVSPropertyOp23
 70
     1
102
RTVSPropertyOp24
 70
     1
102
RTVSPropertyOp25
 70
     1
102
RTVSPropertyOp26
 70
     1
102
RTVSPropertyOp27
 70
     1
102
RTVSPropertyOp28
 70
     1
102
RTVSPropertyOp29
 70
     1
102
RTVSPropertyOp30
 70
     1
102
RTVSPropertyOp31
 70
     1
102
RTVSPropertyOp32
 70
     1
  0
XRECORD
  5
753
102
{ACAD_REACTORS
330
752
102
}
330
752
100
AcDbXrecord
280
     1
102
RTVSPropertyOp0
 70
     1
102
RTVSPropertyOp1
 70
     1
102
RTVSPropertyOp2
 70
     1
102
RTVSPropertyOp3
 70
     1
102
RTVSPropertyOp4
 70
     1
102
RTVSPropertyOp5
 70
     1
102
RTVSPropertyOp6
 70
     1
102
RTVSPropertyOp7
 70
     1
102
RTVSPropertyOp8
 70
     1
102
RTVSPropertyOp9
 70
     1
102
RTVSPropertyOp10
 70
     1
102
RTVSPropertyOp11
 70
     1
102
RTVSPropertyOp12
 70
     1
102
RTVSPropertyOp13
 70
     1
102
RTVSPropertyOp14
 70
     1
102
RTVSPropertyOp15
 70
     1
102
RTVSPropertyOp16
 70
     1
102
RTVSPropertyOp17
 70
     1
102
RTVSPropertyOp18
 70
     1
102
RTVSPropertyOp19
 70
     1
102
RTVSPropertyOp20
 70
     1
102
RTVSPropertyOp21
 70
     1
102
RTVSPropertyOp22
 70
     1
102
RTVSPropertyOp23
 70
     1
102
RTVSPropertyOp24
 70
     1
102
RTVSPropertyOp25
 70
     1
102
RTVSPropertyOp26
 70
     1
102
RTVSPropertyOp27
 70
     1
102
RTVSPropertyOp28
 70
     1
102
RTVSPropertyOp29
 70
     1
102
RTVSPropertyOp30
 70
     1
102
RTVSPropertyOp31
 70
     1
102
RTVSPropertyOp32
 70
     1
  0
XRECORD
  5
755
102
{ACAD_REACTORS
330
754
102
}
330
754
100
AcDbXrecord
280
     1
102
RTVSPropertyOp0
 70
     1
102
RTVSPropertyOp1
 70
     1
102
RTVSPropertyOp2
 70
     1
102
RTVSPropertyOp3
 70
     1
102
RTVSPropertyOp4
 70
     1
102
RTVSPropertyOp5
 70
     1
102
RTVSPropertyOp6
 70
     1
102
RTVSPropertyOp7
 70
     1
102
RTVSPropertyOp8
 70
     1
102
RTVSPropertyOp9
 70
     1
102
RTVSPropertyOp10
 70
     1
102
RTVSPropertyOp11
 70
     1
102
RTVSPropertyOp12
 70
     1
102
RTVSPropertyOp13
 70
     1
102
RTVSPropertyOp14
 70
     1
102
RTVSPropertyOp15
 70
     1
102
RTVSPropertyOp16
 70
     1
102
RTVSPropertyOp17
 70
     1
102
RTVSPropertyOp18
 70
     1
102
RTVSPropertyOp19
 70
     1
102
RTVSPropertyOp20
 70
     1
102
RTVSPropertyOp21
 70
     1
102
RTVSPropertyOp22
 70
     1
102
RTVSPropertyOp23
 70
     1
102
RTVSPropertyOp24
 70
     1
102
RTVSPropertyOp25
 70
     1
102
RTVSPropertyOp26
 70
     1
102
RTVSPropertyOp27
 70
     1
102
RTVSPropertyOp28
 70
     1
102
RTVSPropertyOp29
 70
     1
102
RTVSPropertyOp30
 70
     1
102
RTVSPropertyOp31
 70
     1
102
RTVSPropertyOp32
 70
     1
  0
XRECORD
  5
757
102
{ACAD_REACTORS
330
756
102
}
330
756
100
AcDbXrecord
280
     1
102
RTVSPropertyOp0
 70
     1
102
RTVSPropertyOp1
 70
     1
102
RTVSPropertyOp2
 70
     1
102
RTVSPropertyOp3
 70
     1
102
RTVSPropertyOp4
 70
     1
102
RTVSPropertyOp5
 70
     1
102
RTVSPropertyOp6
 70
     1
102
RTVSPropertyOp7
 70
     1
102
RTVSPropertyOp8
 70
     1
102
RTVSPropertyOp9
 70
     1
102
RTVSPropertyOp10
 70
     1
102
RTVSPropertyOp11
 70
     1
102
RTVSPropertyOp12
 70
     1
102
RTVSPropertyOp13
 70
     1
102
RTVSPropertyOp14
 70
     1
102
RTVSPropertyOp15
 70
     1
102
RTVSPropertyOp16
 70
     1
102
RTVSPropertyOp17
 70
     1
102
RTVSPropertyOp18
 70
     1
102
RTVSPropertyOp19
 70
     1
102
RTVSPropertyOp20
 70
     1
102
RTVSPropertyOp21
 70
     1
102
RTVSPropertyOp22
 70
     1
102
RTVSPropertyOp23
 70
     1
102
RTVSPropertyOp24
 70
     1
102
RTVSPropertyOp25
 70
     1
102
RTVSPropertyOp26
 70
     1
102
RTVSPropertyOp27
 70
     1
102
RTVSPropertyOp28
 70
     1
102
RTVSPropertyOp29
 70
     1
102
RTVSPropertyOp30
 70
     1
102
RTVSPropertyOp31
 70
     1
102
RTVSPropertyOp32
 70
     1
  0
XRECORD
  5
759
102
{ACAD_REACTORS
330
758
102
}
330
758
100
AcDbXrecord
280
     1
102
RTVSPropertyOp0
 70
     1
102
RTVSPropertyOp1
 70
     1
102
RTVSPropertyOp2
 70
     1
102
RTVSPropertyOp3
 70
     1
102
RTVSPropertyOp4
 70
     1
102
RTVSPropertyOp5
 70
     1
102
RTVSPropertyOp6
 70
     1
102
RTVSPropertyOp7
 70
     1
102
RTVSPropertyOp8
 70
     1
102
RTVSPropertyOp9
 70
     1
102
RTVSPropertyOp10
 70
     1
102
RTVSPropertyOp11
 70
     1
102
RTVSPropertyOp12
 70
     1
102
RTVSPropertyOp13
 70
     1
102
RTVSPropertyOp14
 70
     1
102
RTVSPropertyOp15
 70
     1
102
RTVSPropertyOp16
 70
     1
102
RTVSPropertyOp17
 70
     1
102
RTVSPropertyOp18
 70
     1
102
RTVSPropertyOp19
 70
     1
102
RTVSPropertyOp20
 70
     1
102
RTVSPropertyOp21
 70
     1
102
RTVSPropertyOp22
 70
     1
102
RTVSPropertyOp23
 70
     1
102
RTVSPropertyOp24
 70
     1
102
RTVSPropertyOp25
 70
     1
102
RTVSPropertyOp26
 70
     1
102
RTVSPropertyOp27
 70
     1
102
RTVSPropertyOp28
 70
     1
102
RTVSPropertyOp29
 70
     1
102
RTVSPropertyOp30
 70
     1
102
RTVSPropertyOp31
 70
     1
102
RTVSPropertyOp32
 70
     1
  0
XRECORD
  5
761
102
{ACAD_REACTORS
330
760
102
}
330
760
100
AcDbXrecord
280
     1
102
RTVSPropertyOp0
 70
     1
102
RTVSPropertyOp1
 70
     1
102
RTVSPropertyOp2
 70
     1
102
RTVSPropertyOp3
 70
     1
102
RTVSPropertyOp4
 70
     1
102
RTVSPropertyOp5
 70
     1
102
RTVSPropertyOp6
 70
     1
102
RTVSPropertyOp7
 70
     1
102
RTVSPropertyOp8
 70
     1
102
RTVSPropertyOp9
 70
     1
102
RTVSPropertyOp10
 70
     1
102
RTVSPropertyOp11
 70
     1
102
RTVSPropertyOp12
 70
     1
102
RTVSPropertyOp13
 70
     1
102
RTVSPropertyOp14
 70
     1
102
RTVSPropertyOp15
 70
     1
102
RTVSPropertyOp16
 70
     1
102
RTVSPropertyOp17
 70
     1
102
RTVSPropertyOp18
 70
     1
102
RTVSPropertyOp19
 70
     1
102
RTVSPropertyOp20
 70
     1
102
RTVSPropertyOp21
 70
     1
102
RTVSPropertyOp22
 70
     1
102
RTVSPropertyOp23
 70
     1
102
RTVSPropertyOp24
 70
     1
102
RTVSPropertyOp25
 70
     1
102
RTVSPropertyOp26
 70
     1
102
RTVSPropertyOp27
 70
     1
102
RTVSPropertyOp28
 70
     1
102
RTVSPropertyOp29
 70
     1
102
RTVSPropertyOp30
 70
     1
102
RTVSPropertyOp31
 70
     1
102
RTVSPropertyOp32
 70
     1
  0
XRECORD
  5
77D
102
{ACAD_REACTORS
330
77C
102
}
330
77C
100
AcDbXrecord
280
     1
102
RTVSPropertyOp0
 70
     0
102
RTVSPropertyOp1
 70
     0
102
RTVSPropertyOp2
 70
     0
102
RTVSPropertyOp3
 70
     0
102
RTVSPropertyOp4
 70
     0
102
RTVSPropertyOp5
 70
     0
102
RTVSPropertyOp6
 70
     0
102
RTVSPropertyOp7
 70
     0
102
RTVSPropertyOp8
 70
     0
102
RTVSPropertyOp9
 70
     0
102
RTVSPropertyOp10
 70
     0
102
RTVSPropertyOp11
 70
     0
102
RTVSPropertyOp12
 70
     0
102
RTVSPropertyOp13
 70
     0
102
RTVSPropertyOp14
 70
     2
102
RTVSPropertyOp15
 70
     0
102
RTVSPropertyOp16
 70
     0
102
RTVSPropertyOp17
 70
     0
102
RTVSPropertyOp18
 70
     0
102
RTVSPropertyOp19
 70
     0
102
RTVSPropertyOp20
 70
     0
102
RTVSPropertyOp21
 70
     0
102
RTVSPropertyOp22
 70
     0
102
RTVSPropertyOp23
 70
     0
102
RTVSPropertyOp24
 70
     0
102
RTVSPropertyOp25
 70
     0
102
RTVSPropertyOp26
 70
     0
102
RTVSPropertyOp27
 70
     0
102
RTVSPropertyOp28
 70
     0
102
RTVSPropertyOp29
 70
     0
102
RTVSPropertyOp30
 70
     0
102
RTVSPropertyOp31
 70
     0
102
RTVSPropertyOp32
 70
     0
  0
XRECORD
  5
76D
102
{ACAD_REACTORS
330
76C
102
}
330
76C
100
AcDbXrecord
280
     1
102
RTVSPropertyOp0
 70
     1
102
RTVSPropertyOp1
 70
     1
102
RTVSPropertyOp2
 70
     1
102
RTVSPropertyOp3
 70
     1
102
RTVSPropertyOp4
 70
     1
102
RTVSPropertyOp5
 70
     1
102
RTVSPropertyOp6
 70
     1
102
RTVSPropertyOp7
 70
     1
102
RTVSPropertyOp8
 70
     1
102
RTVSPropertyOp9
 70
     1
102
RTVSPropertyOp10
 70
     1
102
RTVSPropertyOp11
 70
     1
102
RTVSPropertyOp12
 70
     1
102
RTVSPropertyOp13
 70
     1
102
RTVSPropertyOp14
 70
     1
102
RTVSPropertyOp15
 70
     1
102
RTVSPropertyOp16
 70
     1
102
RTVSPropertyOp17
 70
     1
102
RTVSPropertyOp18
 70
     1
102
RTVSPropertyOp19
 70
     1
102
RTVSPropertyOp20
 70
     1
102
RTVSPropertyOp21
 70
     1
102
RTVSPropertyOp22
 70
     1
102
RTVSPropertyOp23
 70
     1
102
RTVSPropertyOp24
 70
     1
102
RTVSPropertyOp25
 70
     1
102
RTVSPropertyOp26
 70
     1
102
RTVSPropertyOp27
 70
     1
102
RTVSPropertyOp28
 70
     1
102
RTVSPropertyOp29
 70
     1
102
RTVSPropertyOp30
 70
     1
102
RTVSPropertyOp31
 70
     1
102
RTVSPropertyOp32
 70
     1
  0
XRECORD
  5
77F
102
{ACAD_REACTORS
330
77E
102
}
330
77E
100
AcDbXrecord
280
     1
102
RTVSPropertyOp0
 70
     0
102
RTVSPropertyOp1
 70
     0
102
RTVSPropertyOp2
 70
     0
102
RTVSPropertyOp3
 70
     0
102
RTVSPropertyOp4
 70
     0
102
RTVSPropertyOp5
 70
     0
102
RTVSPropertyOp6
 70
     0
102
RTVSPropertyOp7
 70
     0
102
RTVSPropertyOp8
 70
     0
102
RTVSPropertyOp9
 70
     0
102
RTVSPropertyOp10
 70
     0
102
RTVSPropertyOp11
 70
     0
102
RTVSPropertyOp12
 70
     0
102
RTVSPropertyOp13
 70
     0
102
RTVSPropertyOp14
 70
     2
102
RTVSPropertyOp15
 70
     0
102
RTVSPropertyOp16
 70
     0
102
RTVSPropertyOp17
 70
     0
102
RTVSPropertyOp18
 70
     0
102
RTVSPropertyOp19
 70
     0
102
RTVSPropertyOp20
 70
     0
102
RTVSPropertyOp21
 70
     0
102
RTVSPropertyOp22
 70
     0
102
RTVSPropertyOp23
 70
     0
102
RTVSPropertyOp24
 70
     0
102
RTVSPropertyOp25
 70
     0
102
RTVSPropertyOp26
 70
     0
102
RTVSPropertyOp27
 70
     0
102
RTVSPropertyOp28
 70
     0
102
RTVSPropertyOp29
 70
     0
102
RTVSPropertyOp30
 70
     0
102
RTVSPropertyOp31
 70
     0
102
RTVSPropertyOp32
 70
     0
  0
XRECORD
  5
765
102
{ACAD_REACTORS
330
764
102
}
330
764
100
AcDbXrecord
280
     1
102
RTVSPropertyOp0
 70
     1
102
RTVSPropertyOp1
 70
     1
102
RTVSPropertyOp2
 70
     1
102
RTVSPropertyOp3
 70
     1
102
RTVSPropertyOp4
 70
     1
102
RTVSPropertyOp5
 70
     1
102
RTVSPropertyOp6
 70
     1
102
RTVSPropertyOp7
 70
     1
102
RTVSPropertyOp8
 70
     1
102
RTVSPropertyOp9
 70
     1
102
RTVSPropertyOp10
 70
     1
102
RTVSPropertyOp11
 70
     1
102
RTVSPropertyOp12
 70
     1
102
RTVSPropertyOp13
 70
     1
102
RTVSPropertyOp14
 70
     1
102
RTVSPropertyOp15
 70
     1
102
RTVSPropertyOp16
 70
     1
102
RTVSPropertyOp17
 70
     1
102
RTVSPropertyOp18
 70
     1
102
RTVSPropertyOp19
 70
     1
102
RTVSPropertyOp20
 70
     1
102
RTVSPropertyOp21
 70
     1
102
RTVSPropertyOp22
 70
     1
102
RTVSPropertyOp23
 70
     1
102
RTVSPropertyOp24
 70
     1
102
RTVSPropertyOp25
 70
     1
102
RTVSPropertyOp26
 70
     1
102
RTVSPropertyOp27
 70
     1
102
RTVSPropertyOp28
 70
     1
102
RTVSPropertyOp29
 70
     1
102
RTVSPropertyOp30
 70
     1
102
RTVSPropertyOp31
 70
     1
102
RTVSPropertyOp32
 70
     1
  0
XRECORD
  5
77B
102
{ACAD_REACTORS
330
77A
102
}
330
77A
100
AcDbXrecord
280
     1
102
RTVSPropertyOp0
 70
     1
102
RTVSPropertyOp1
 70
     1
102
RTVSPropertyOp2
 70
     1
102
RTVSPropertyOp3
 70
     1
102
RTVSPropertyOp4
 70
     1
102
RTVSPropertyOp5
 70
     1
102
RTVSPropertyOp6
 70
     1
102
RTVSPropertyOp7
 70
     1
102
RTVSPropertyOp8
 70
     1
102
RTVSPropertyOp9
 70
     1
102
RTVSPropertyOp10
 70
     1
102
RTVSPropertyOp11
 70
     1
102
RTVSPropertyOp12
 70
     1
102
RTVSPropertyOp13
 70
     1
102
RTVSPropertyOp14
 70
     1
102
RTVSPropertyOp15
 70
     1
102
RTVSPropertyOp16
 70
     1
102
RTVSPropertyOp17
 70
     1
102
RTVSPropertyOp18
 70
     1
102
RTVSPropertyOp19
 70
     1
102
RTVSPropertyOp20
 70
     1
102
RTVSPropertyOp21
 70
     1
102
RTVSPropertyOp22
 70
     1
102
RTVSPropertyOp23
 70
     1
102
RTVSPropertyOp24
 70
     1
102
RTVSPropertyOp25
 70
     1
102
RTVSPropertyOp26
 70
     1
102
RTVSPropertyOp27
 70
     1
102
RTVSPropertyOp28
 70
     1
102
RTVSPropertyOp29
 70
     1
102
RTVSPropertyOp30
 70
     1
102
RTVSPropertyOp31
 70
     1
102
RTVSPropertyOp32
 70
     1
  0
XRECORD
  5
779
102
{ACAD_REACTORS
330
778
102
}
330
778
100
AcDbXrecord
280
     1
102
RTVSPropertyOp0
 70
     1
102
RTVSPropertyOp1
 70
     1
102
RTVSPropertyOp2
 70
     1
102
RTVSPropertyOp3
 70
     1
102
RTVSPropertyOp4
 70
     1
102
RTVSPropertyOp5
 70
     1
102
RTVSPropertyOp6
 70
     1
102
RTVSPropertyOp7
 70
     1
102
RTVSPropertyOp8
 70
     1
102
RTVSPropertyOp9
 70
     1
102
RTVSPropertyOp10
 70
     1
102
RTVSPropertyOp11
 70
     1
102
RTVSPropertyOp12
 70
     1
102
RTVSPropertyOp13
 70
     1
102
RTVSPropertyOp14
 70
     1
102
RTVSPropertyOp15
 70
     1
102
RTVSPropertyOp16
 70
     1
102
RTVSPropertyOp17
 70
     1
102
RTVSPropertyOp18
 70
     1
102
RTVSPropertyOp19
 70
     1
102
RTVSPropertyOp20
 70
     1
102
RTVSPropertyOp21
 70
     1
102
RTVSPropertyOp22
 70
     1
102
RTVSPropertyOp23
 70
     1
102
RTVSPropertyOp24
 70
     1
102
RTVSPropertyOp25
 70
     1
102
RTVSPropertyOp26
 70
     1
102
RTVSPropertyOp27
 70
     1
102
RTVSPropertyOp28
 70
     1
102
RTVSPropertyOp29
 70
     1
102
RTVSPropertyOp30
 70
     1
102
RTVSPropertyOp31
 70
     1
102
RTVSPropertyOp32
 70
     1
  0
XRECORD
  5
773
102
{ACAD_REACTORS
330
772
102
}
330
772
100
AcDbXrecord
280
     1
102
RTVSPropertyOp0
 70
     1
102
RTVSPropertyOp1
 70
     1
102
RTVSPropertyOp2
 70
     1
102
RTVSPropertyOp3
 70
     1
102
RTVSPropertyOp4
 70
     1
102
RTVSPropertyOp5
 70
     1
102
RTVSPropertyOp6
 70
     1
102
RTVSPropertyOp7
 70
     1
102
RTVSPropertyOp8
 70
     1
102
RTVSPropertyOp9
 70
     1
102
RTVSPropertyOp10
 70
     1
102
RTVSPropertyOp11
 70
     1
102
RTVSPropertyOp12
 70
     1
102
RTVSPropertyOp13
 70
     1
102
RTVSPropertyOp14
 70
     1
102
RTVSPropertyOp15
 70
     1
102
RTVSPropertyOp16
 70
     1
102
RTVSPropertyOp17
 70
     1
102
RTVSPropertyOp18
 70
     1
102
RTVSPropertyOp19
 70
     1
102
RTVSPropertyOp20
 70
     1
102
RTVSPropertyOp21
 70
     1
102
RTVSPropertyOp22
 70
     1
102
RTVSPropertyOp23
 70
     1
102
RTVSPropertyOp24
 70
     1
102
RTVSPropertyOp25
 70
     1
102
RTVSPropertyOp26
 70
     1
102
RTVSPropertyOp27
 70
     1
102
RTVSPropertyOp28
 70
     1
102
RTVSPropertyOp29
 70
     1
102
RTVSPropertyOp30
 70
     1
102
RTVSPropertyOp31
 70
     1
102
RTVSPropertyOp32
 70
     1
  0
XRECORD
  5
775
102
{ACAD_REACTORS
330
774
102
}
330
774
100
AcDbXrecord
280
     1
102
RTVSPropertyOp0
 70
     1
102
RTVSPropertyOp1
 70
     1
102
RTVSPropertyOp2
 70
     1
102
RTVSPropertyOp3
 70
     1
102
RTVSPropertyOp4
 70
     1
102
RTVSPropertyOp5
 70
     1
102
RTVSPropertyOp6
 70
     1
102
RTVSPropertyOp7
 70
     1
102
RTVSPropertyOp8
 70
     1
102
RTVSPropertyOp9
 70
     1
102
RTVSPropertyOp10
 70
     1
102
RTVSPropertyOp11
 70
     1
102
RTVSPropertyOp12
 70
     1
102
RTVSPropertyOp13
 70
     1
102
RTVSPropertyOp14
 70
     1
102
RTVSPropertyOp15
 70
     1
102
RTVSPropertyOp16
 70
     1
102
RTVSPropertyOp17
 70
     1
102
RTVSPropertyOp18
 70
     1
102
RTVSPropertyOp19
 70
     1
102
RTVSPropertyOp20
 70
     1
102
RTVSPropertyOp21
 70
     1
102
RTVSPropertyOp22
 70
     1
102
RTVSPropertyOp23
 70
     1
102
RTVSPropertyOp24
 70
     1
102
RTVSPropertyOp25
 70
     1
102
RTVSPropertyOp26
 70
     1
102
RTVSPropertyOp27
 70
     1
102
RTVSPropertyOp28
 70
     1
102
RTVSPropertyOp29
 70
     1
102
RTVSPropertyOp30
 70
     1
102
RTVSPropertyOp31
 70
     1
102
RTVSPropertyOp32
 70
     1
  0
XRECORD
  5
76B
102
{ACAD_REACTORS
330
76A
102
}
330
76A
100
AcDbXrecord
280
     1
102
RTVSPropertyOp0
 70
     1
102
RTVSPropertyOp1
 70
     1
102
RTVSPropertyOp2
 70
     1
102
RTVSPropertyOp3
 70
     1
102
RTVSPropertyOp4
 70
     1
102
RTVSPropertyOp5
 70
     1
102
RTVSPropertyOp6
 70
     1
102
RTVSPropertyOp7
 70
     1
102
RTVSPropertyOp8
 70
     1
102
RTVSPropertyOp9
 70
     1
102
RTVSPropertyOp10
 70
     1
102
RTVSPropertyOp11
 70
     1
102
RTVSPropertyOp12
 70
     1
102
RTVSPropertyOp13
 70
     1
102
RTVSPropertyOp14
 70
     1
102
RTVSPropertyOp15
 70
     1
102
RTVSPropertyOp16
 70
     1
102
RTVSPropertyOp17
 70
     1
102
RTVSPropertyOp18
 70
     1
102
RTVSPropertyOp19
 70
     1
102
RTVSPropertyOp20
 70
     1
102
RTVSPropertyOp21
 70
     1
102
RTVSPropertyOp22
 70
     1
102
RTVSPropertyOp23
 70
     1
102
RTVSPropertyOp24
 70
     1
102
RTVSPropertyOp25
 70
     1
102
RTVSPropertyOp26
 70
     1
102
RTVSPropertyOp27
 70
     1
102
RTVSPropertyOp28
 70
     1
102
RTVSPropertyOp29
 70
     1
102
RTVSPropertyOp30
 70
     1
102
RTVSPropertyOp31
 70
     1
102
RTVSPropertyOp32
 70
     1
  0
XRECORD
  5
75F
102
{ACAD_REACTORS
330
75E
102
}
330
75E
100
AcDbXrecord
280
     1
102
RTVSPropertyOp0
 70
     1
102
RTVSPropertyOp1
 70
     1
102
RTVSPropertyOp2
 70
     1
102
RTVSPropertyOp3
 70
     1
102
RTVSPropertyOp4
 70
     1
102
RTVSPropertyOp5
 70
     1
102
RTVSPropertyOp6
 70
     1
102
RTVSPropertyOp7
 70
     1
102
RTVSPropertyOp8
 70
     1
102
RTVSPropertyOp9
 70
     1
102
RTVSPropertyOp10
 70
     1
102
RTVSPropertyOp11
 70
     1
102
RTVSPropertyOp12
 70
     1
102
RTVSPropertyOp13
 70
     1
102
RTVSPropertyOp14
 70
     1
102
RTVSPropertyOp15
 70
     1
102
RTVSPropertyOp16
 70
     1
102
RTVSPropertyOp17
 70
     1
102
RTVSPropertyOp18
 70
     1
102
RTVSPropertyOp19
 70
     1
102
RTVSPropertyOp20
 70
     1
102
RTVSPropertyOp21
 70
     1
102
RTVSPropertyOp22
 70
     1
102
RTVSPropertyOp23
 70
     1
102
RTVSPropertyOp24
 70
     1
102
RTVSPropertyOp25
 70
     1
102
RTVSPropertyOp26
 70
     1
102
RTVSPropertyOp27
 70
     1
102
RTVSPropertyOp28
 70
     1
102
RTVSPropertyOp29
 70
     1
102
RTVSPropertyOp30
 70
     1
102
RTVSPropertyOp31
 70
     1
102
RTVSPropertyOp32
 70
     1
  0
XRECORD
  5
777
102
{ACAD_REACTORS
330
776
102
}
330
776
100
AcDbXrecord
280
     1
102
RTVSPropertyOp0
 70
     1
102
RTVSPropertyOp1
 70
     1
102
RTVSPropertyOp2
 70
     1
102
RTVSPropertyOp3
 70
     1
102
RTVSPropertyOp4
 70
     1
102
RTVSPropertyOp5
 70
     1
102
RTVSPropertyOp6
 70
     1
102
RTVSPropertyOp7
 70
     1
102
RTVSPropertyOp8
 70
     1
102
RTVSPropertyOp9
 70
     1
102
RTVSPropertyOp10
 70
     1
102
RTVSPropertyOp11
 70
     1
102
RTVSPropertyOp12
 70
     1
102
RTVSPropertyOp13
 70
     1
102
RTVSPropertyOp14
 70
     1
102
RTVSPropertyOp15
 70
     1
102
RTVSPropertyOp16
 70
     1
102
RTVSPropertyOp17
 70
     1
102
RTVSPropertyOp18
 70
     1
102
RTVSPropertyOp19
 70
     1
102
RTVSPropertyOp20
 70
     1
102
RTVSPropertyOp21
 70
     1
102
RTVSPropertyOp22
 70
     1
102
RTVSPropertyOp23
 70
     1
102
RTVSPropertyOp24
 70
     1
102
RTVSPropertyOp25
 70
     1
102
RTVSPropertyOp26
 70
     1
102
RTVSPropertyOp27
 70
     1
102
RTVSPropertyOp28
 70
     1
102
RTVSPropertyOp29
 70
     1
102
RTVSPropertyOp30
 70
     1
102
RTVSPropertyOp31
 70
     1
102
RTVSPropertyOp32
 70
     1
  0
ENDSEC
  0
EOF
